  0
SECTION
  2
HEADER
  9
$ACADVER
  1
AC1014
  9
$ACADMAINTVER
 70
     5
  9
$DWGCODEPAGE
  3
ANSI_1252
  9
$INSBASE
 10
2085.374709
 20
343.6
 30
0.0
  9
$EXTMIN
 10
1500.874592
 20
313.532232
 30
-0.000013
  9
$EXTMAX
 10
2085.638015
 20
1057.119877
 30
0.421758
  9
$LIMMIN
 10
0.0
 20
0.0
  9
$LIMMAX
 10
3360.0
 20
2376.0
  9
$ORTHOMODE
 70
     1
  9
$REGENMODE
 70
     1
  9
$FILLMODE
 70
     1
  9
$QTEXTMODE
 70
     0
  9
$MIRRTEXT
 70
     0
  9
$DRAGMODE
 70
     2
  9
$LTSCALE
 40
1.0
  9
$OSMODE
 70
     0
  9
$ATTMODE
 70
     1
  9
$TEXTSIZE
 40
3.5
  9
$TRACEWID
 40
0.05
  9
$TEXTSTYLE
  7
ROMANS
  9
$CLAYER
  8
035-DWG
  9
$CELTYPE
  6
BYLAYER
  9
$CECOLOR
 62
   256
  9
$CELTSCALE
 40
1.0
  9
$DELOBJ
 70
     1
  9
$DISPSILH
 70
     0
  9
$DIMSCALE
 40
8.0
  9
$DIMASZ
 40
2.5
  9
$DIMEXO
 40
1.5
  9
$DIMDLI
 40
5.0
  9
$DIMRND
 40
0.0
  9
$DIMDLE
 40
0.0
  9
$DIMEXE
 40
1.0
  9
$DIMTP
 40
0.0
  9
$DIMTM
 40
0.0
  9
$DIMTXT
 40
3.0
  9
$DIMCEN
 40
-2.0
  9
$DIMTSZ
 40
0.0
  9
$DIMTOL
 70
     0
  9
$DIMLIM
 70
     0
  9
$DIMTIH
 70
     0
  9
$DIMTOH
 70
     0
  9
$DIMSE1
 70
     0
  9
$DIMSE2
 70
     0
  9
$DIMTAD
 70
     1
  9
$DIMZIN
 70
     8
  9
$DIMBLK
  1

  9
$DIMASO
 70
     1
  9
$DIMSHO
 70
     1
  9
$DIMPOST
  1

  9
$DIMAPOST
  1

  9
$DIMALT
 70
     0
  9
$DIMALTD
 70
     2
  9
$DIMALTF
 40
25.4
  9
$DIMLFAC
 40
1.0
  9
$DIMTOFL
 70
     1
  9
$DIMTVP
 40
0.0
  9
$DIMTIX
 70
     0
  9
$DIMSOXD
 70
     0
  9
$DIMSAH
 70
     0
  9
$DIMBLK1
  1

  9
$DIMBLK2
  1

  9
$DIMSTYLE
  2
STANDAARD
  9
$DIMCLRD
 70
   256
  9
$DIMCLRE
 70
   256
  9
$DIMCLRT
 70
   256
  9
$DIMTFAC
 40
0.75
  9
$DIMGAP
 40
1.5
  9
$DIMJUST
 70
     0
  9
$DIMSD1
 70
     0
  9
$DIMSD2
 70
     0
  9
$DIMTOLJ
 70
     1
  9
$DIMTZIN
 70
     8
  9
$DIMALTZ
 70
     8
  9
$DIMALTTZ
 70
     8
  9
$DIMFIT
 70
     3
  9
$DIMUPT
 70
     0
  9
$DIMUNIT
 70
     2
  9
$DIMDEC
 70
     0
  9
$DIMTDEC
 70
     1
  9
$DIMALTU
 70
     2
  9
$DIMALTTD
 70
     2
  9
$DIMTXSTY
  7
ROMANS
  9
$DIMAUNIT
 70
     0
  9
$LUNITS
 70
     2
  9
$LUPREC
 70
     4
  9
$SKETCHINC
 40
0.1
  9
$FILLETRAD
 40
6.0
  9
$AUNITS
 70
     0
  9
$AUPREC
 70
     4
  9
$MENU
  1
wtb2
  9
$ELEVATION
 40
0.0
  9
$PELEVATION
 40
0.0
  9
$THICKNESS
 40
0.0
  9
$LIMCHECK
 70
     0
  9
$BLIPMODE
 70
     0
  9
$CHAMFERA
 40
0.0
  9
$CHAMFERB
 40
0.0
  9
$CHAMFERC
 40
0.0
  9
$CHAMFERD
 40
0.0
  9
$SKPOLY
 70
     0
  9
$TDCREATE
 40
2451578.409790035
  9
$TDUPDATE
 40
2452590.393949086
  9
$TDINDWG
 40
3.1291717245
  9
$TDUSRTIMER
 40
3.1291717245
  9
$USRTIMER
 70
     1
  9
$ANGBASE
 50
0.0
  9
$ANGDIR
 70
     0
  9
$PDMODE
 70
     3
  9
$PDSIZE
 40
0.0
  9
$PLINEWID
 40
0.0
  9
$COORDS
 70
     2
  9
$SPLFRAME
 70
     0
  9
$SPLINETYPE
 70
     6
  9
$SPLINESEGS
 70
     8
  9
$ATTDIA
 70
     0
  9
$ATTREQ
 70
     1
  9
$HANDLING
 70
     1
  9
$HANDSEED
  5
2EB
  9
$SURFTAB1
 70
     6
  9
$SURFTAB2
 70
     6
  9
$SURFTYPE
 70
     6
  9
$SURFU
 70
     6
  9
$SURFV
 70
     6
  9
$UCSNAME
  2

  9
$UCSORG
 10
0.0
 20
0.0
 30
0.0
  9
$UCSXDIR
 10
1.0
 20
0.0
 30
0.0
  9
$UCSYDIR
 10
0.0
 20
1.0
 30
0.0
  9
$PUCSNAME
  2

  9
$PUCSORG
 10
0.0
 20
0.0
 30
0.0
  9
$PUCSXDIR
 10
1.0
 20
0.0
 30
0.0
  9
$PUCSYDIR
 10
0.0
 20
1.0
 30
0.0
  9
$USERI1
 70
     0
  9
$USERI2
 70
     0
  9
$USERI3
 70
     0
  9
$USERI4
 70
     0
  9
$USERI5
 70
     0
  9
$USERR1
 40
0.0
  9
$USERR2
 40
0.0
  9
$USERR3
 40
0.0
  9
$USERR4
 40
0.0
  9
$USERR5
 40
0.0
  9
$WORLDVIEW
 70
     1
  9
$SHADEDGE
 70
     3
  9
$SHADEDIF
 70
    70
  9
$TILEMODE
 70
     1
  9
$MAXACTVP
 70
    16
  9
$PINSBASE
 10
0.0
 20
0.0
 30
0.0
  9
$PLIMCHECK
 70
     0
  9
$PEXTMIN
 10
1.000000E+20
 20
1.000000E+20
 30
1.000000E+20
  9
$PEXTMAX
 10
-1.000000E+20
 20
-1.000000E+20
 30
-1.000000E+20
  9
$PLIMMIN
 10
0.0
 20
0.0
  9
$PLIMMAX
 10
12.0
 20
9.0
  9
$UNITMODE
 70
     0
  9
$VISRETAIN
 70
     0
  9
$PLINEGEN
 70
     0
  9
$PSLTSCALE
 70
     0
  9
$TREEDEPTH
 70
  3020
  9
$PICKSTYLE
 70
     1
  9
$CMLSTYLE
  2
STANDARD
  9
$CMLJUST
 70
     0
  9
$CMLSCALE
 40
1.0
  9
$PROXYGRAPHICS
 70
     1
  9
$MEASUREMENT
 70
     0
  0
ENDSEC
  0
SECTION
  2
CLASSES
  0
CLASS
  1
LWPOLYLINE
  2
AcDbPolyline
  3
"AutoCAD"
 90
        0
280
     0
281
     1
  0
CLASS
  1
HATCH
  2
AcDbHatch
  3
"ACAD_SEDONA"
 90
        0
280
     0
281
     1
  0
CLASS
  1
ACMDATUMID
  2
AcmDatumId
  3
AutoCadMServices
 90
      255
280
     1
281
     1
  0
CLASS
  1
ACMFCFRAME
  2
AcmFCF
  3
AutoCadMServices
 90
      255
280
     1
281
     1
  0
CLASS
  1
AMLOADER
  2
AMLoader
  3
AMAcad
 90
        0
280
     0
281
     0
  0
ENDSEC
  0
SECTION
  2
TABLES
  0
TABLE
  2
VPORT
  5
12
100
AcDbSymbolTable
 70
     2
  0
VPORT
  5
2EA
100
AcDbSymbolTableRecord
100
AcDbViewportTableRecord
  2
*ACTIVE
 70
     0
 10
0.0
 20
0.0
 11
1.0
 21
1.0
 12
1793.256303
 22
685.326055
 13
0.0
 23
0.0
 14
20.0
 24
20.0
 15
40.0
 25
40.0
 16
0.0
 26
0.0
 36
1.0
 17
0.0
 27
0.0
 37
0.0
 40
751.895886
 41
1.63806
 42
50.0
 43
0.0
 44
0.0
 50
0.0
 51
0.0
 71
     0
 72
 20000
 73
     1
 74
     0
 75
     0
 76
     0
 77
     0
 78
     1
  0
ENDTAB
  0
TABLE
  2
LTYPE
  5
D
100
AcDbSymbolTable
 70
     1
  0
LTYPE
  5
E
100
AcDbSymbolTableRecord
100
AcDbLinetypeTableRecord
  2
BYBLOCK
 70
     0
  3

 72
    65
 73
     0
 40
0.0
  0
LTYPE
  5
F
100
AcDbSymbolTableRecord
100
AcDbLinetypeTableRecord
  2
BYLAYER
 70
     0
  3

 72
    65
 73
     0
 40
0.0
  0
LTYPE
  5
5
100
AcDbSymbolTableRecord
100
AcDbLinetypeTableRecord
  2
CONTINUOUS
 70
     0
  3
Solid line
 72
    65
 73
     0
 40
0.0
  0
ENDTAB
  0
TABLE
  2
LAYER
  5
A
100
AcDbSymbolTable
 70
     6
  0
LAYER
  5
4
100
AcDbSymbolTableRecord
100
AcDbLayerTableRecord
  2
0
 70
     0
 62
     8
  6
CONTINUOUS
  0
LAYER
  5
23
100
AcDbSymbolTableRecord
100
AcDbLayerTableRecord
  2
025-DWG
 70
     0
 62
     7
  6
CONTINUOUS
  0
LAYER
  5
1B
100
AcDbSymbolTableRecord
100
AcDbLayerTableRecord
  2
035-DWG
 70
     0
 62
     2
  6
CONTINUOUS
  0
LAYER
  5
11C
100
AcDbSymbolTableRecord
100
AcDbLayerTableRecord
  2
DEFPOINTS
 70
     0
 62
     7
  6
CONTINUOUS
  0
LAYER
  5
77
100
AcDbSymbolTableRecord
100
AcDbLayerTableRecord
  2
VHH-025
 70
     0
 62
     7
  6
CONTINUOUS
  0
LAYER
  5
6B
100
AcDbSymbolTableRecord
100
AcDbLayerTableRecord
  2
VHH-035
 70
     0
 62
     2
  6
CONTINUOUS
  0
ENDTAB
  0
TABLE
  2
STYLE
  5
B
100
AcDbSymbolTable
 70
     2
  0
STYLE
  5
C
100
AcDbSymbolTableRecord
100
AcDbTextStyleTableRecord
  2
STANDARD
 70
     0
 40
0.0
 41
1.0
 50
0.0
 71
     0
 42
15.0
  3
txt
  4

  0
STYLE
  5
1C
100
AcDbSymbolTableRecord
100
AcDbTextStyleTableRecord
  2
ROMANS
 70
     0
 40
0.0
 41
1.0
 50
0.0
 71
     0
 42
3.5
  3
romans
  4

  0
ENDTAB
  0
TABLE
  2
VIEW
  5
10
100
AcDbSymbolTable
 70
     0
  0
ENDTAB
  0
TABLE
  2
UCS
  5
11
100
AcDbSymbolTable
 70
     0
  0
ENDTAB
  0
TABLE
  2
APPID
  5
14
100
AcDbSymbolTable
 70
     1
  0
APPID
  5
15
100
AcDbSymbolTableRecord
100
AcDbRegAppTableRecord
  2
ACAD
 70
     0
  0
ENDTAB
  0
TABLE
  2
DIMSTYLE
  5
16
100
AcDbSymbolTable
 70
     1
  0
DIMSTYLE
105
1E
100
AcDbSymbolTableRecord
100
AcDbDimStyleTableRecord
  2
STANDAARD
 70
     0
  3

  4

  5

  6

  7

 40
8.0
 41
2.5
 42
1.5
 43
5.0
 44
1.0
 45
0.0
 46
0.0
 47
0.0
 48
0.0
140
3.0
141
-2.0
142
0.0
143
25.4
144
1.0
145
0.0
146
0.75
147
1.5
 71
     0
 72
     0
 73
     0
 74
     0
 75
     0
 76
     0
 77
     1
 78
     8
170
     0
171
     2
172
     1
173
     0
174
     0
175
     0
176
   256
177
   256
178
   256
270
     2
271
     0
272
     1
273
     2
274
     2
340
1C
275
     0
280
     0
281
     0
282
     0
283
     1
284
     8
285
     8
286
     8
287
     3
288
     0
  0
ENDTAB
  0
TABLE
  2
BLOCK_RECORD
  5
1
100
AcDbSymbolTable
 70
     0
  0
BLOCK_RECORD
  5
2
100
AcDbSymbolTableRecord
100
AcDbBlockTableRecord
  2
*MODEL_SPACE
  0
BLOCK_RECORD
  5
7
100
AcDbSymbolTableRecord
100
AcDbBlockTableRecord
  2
*PAPER_SPACE
  0
ENDTAB
  0
ENDSEC
  0
SECTION
  2
BLOCKS
  0
BLOCK
  5
3
100
AcDbEntity
  8
0
100
AcDbBlockBegin
  2
*MODEL_SPACE
 70
     0
 10
0.0
 20
0.0
 30
0.0
  3
*MODEL_SPACE
  1

  0
ENDBLK
  5
6
100
AcDbEntity
  8
0
100
AcDbBlockEnd
  0
BLOCK
  5
8
100
AcDbEntity
 67
     1
  8
0
100
AcDbBlockBegin
  2
*PAPER_SPACE
 70
     0
 10
0.0
 20
0.0
 30
0.0
  3
*PAPER_SPACE
  1

  0
ENDBLK
  5
9
100
AcDbEntity
 67
     1
  8
0
100
AcDbBlockEnd
  0
ENDSEC
  0
SECTION
  2
ENTITIES
  0
LINE
  5
1F
100
AcDbEntity
  8
035-DWG
100
AcDbLine
 10
1814.274709
 20
381.6
 30
0.0
 11
1814.274709
 21
776.069091
 31
0.0
  0
LINE
  5
20
100
AcDbEntity
  8
035-DWG
100
AcDbLine
 10
1604.874709
 20
511.860317
 30
0.0
 11
1604.874709
 21
382.7
 31
0.0
  0
LINE
  5
21
100
AcDbEntity
  8
035-DWG
100
AcDbLine
 10
1608.54405
 20
382.7
 30
0.0
 11
1608.54405
 21
518.0
 31
0.0
  0
LINE
  5
22
100
AcDbEntity
  8
025-DWG
100
AcDbLine
 10
1606.290334
 20
382.7
 30
0.0
 11
1606.290334
 21
518.0
 31
0.0
  0
LINE
  5
24
100
AcDbEntity
  8
025-DWG
100
AcDbLine
 10
1605.853869
 20
518.0
 30
0.0
 11
1605.853869
 21
382.7
 31
0.0
  0
LINE
  5
25
100
AcDbEntity
  8
025-DWG
100
AcDbLine
 10
1992.874709
 20
928.6
 30
0.0
 11
1992.874709
 21
343.6
 31
0.0
  0
LINE
  5
26
100
AcDbEntity
  8
035-DWG
100
AcDbLine
 10
2014.874709
 20
928.6
 30
0.0
 11
2014.874709
 21
343.6
 31
0.0
  0
LINE
  5
27
100
AcDbEntity
  8
035-DWG
100
AcDbLine
 10
2085.374709
 20
318.6
 30
0.0
 11
1864.616369
 21
318.6
 31
0.0
  0
LINE
  5
28
100
AcDbEntity
  8
035-DWG
100
AcDbLine
 10
2014.874709
 20
343.6
 30
0.0
 11
1865.074709
 21
343.6
 31
0.0
  0
LINE
  5
29
100
AcDbEntity
  8
035-DWG
100
AcDbLine
 10
1809.224709
 20
343.6
 30
0.0
 11
1612.524709
 21
343.6
 31
0.0
  0
LINE
  5
2A
100
AcDbEntity
  8
035-DWG
100
AcDbLine
 10
1814.274709
 20
381.6
 30
0.0
 11
1607.474709
 21
381.6
 31
0.0
  0
LINE
  5
2B
100
AcDbEntity
  8
025-DWG
100
AcDbLine
 10
1813.024709
 20
373.6
 30
0.0
 11
1608.724709
 21
373.6
 31
0.0
  0
LINE
  5
2C
100
AcDbEntity
  8
035-DWG
100
AcDbLine
 10
1615.874709
 20
343.6
 30
0.0
 11
1780.074709
 21
343.6
 31
0.0
  0
LINE
  5
2D
100
AcDbEntity
  8
035-DWG
100
AcDbLine
 10
1608.724709
 20
373.6
 30
0.0
 11
1608.724709
 21
347.4
 31
0.0
  0
ARC
  5
2E
100
AcDbEntity
  8
035-DWG
100
AcDbCircle
 10
1612.524709
 20
347.4
 30
0.0
 40
3.8
100
AcDbArc
 50
180.0
 51
270.0
  0
LINE
  5
2F
100
AcDbEntity
  8
035-DWG
100
AcDbLine
 10
1607.474709
 20
381.6
 30
0.0
 11
1607.474709
 21
382.2
 31
0.0
  0
LINE
  5
30
100
AcDbEntity
  8
035-DWG
100
AcDbLine
 10
1607.474709
 20
382.2
 30
0.0
 11
1607.474709
 21
381.6
 31
0.0
  0
LINE
  5
31
100
AcDbEntity
  8
025-DWG
100
AcDbLine
 10
1608.54405
 20
382.7
 30
0.0
 11
1606.290334
 21
382.7
 31
0.0
  0
LINE
  5
32
100
AcDbEntity
  8
035-DWG
100
AcDbLine
 10
1606.351269
 20
382.2
 30
0.0
 11
1608.489749
 21
382.2
 31
0.0
  0
LWPOLYLINE
  5
33
100
AcDbEntity
  8
035-DWG
100
AcDbPolyline
 90
       17
 70
     0
 43
0.0
 10
1608.489749
 20
382.2
 10
1608.49488
 20
382.202367
 10
1608.500102
 20
382.209507
 10
1608.505316
 20
382.221475
 10
1608.510428
 20
382.238327
 10
1608.515344
 20
382.260004
 10
1608.519991
 20
382.285982
 10
1608.524297
 20
382.315619
 10
1608.528195
 20
382.348274
 10
1608.531638
 20
382.38337
 10
1608.534786
 20
382.422297
 10
1608.537564
 20
382.464465
 10
1608.539894
 20
382.509283
 10
1608.541715
 20
382.55611
 10
1608.543014
 20
382.604102
 10
1608.543791
 20
382.652364
 10
1608.54405
 20
382.7
  0
ARC
  5
34
100
AcDbEntity
  8
035-DWG
100
AcDbCircle
 10
1605.374709
 20
382.7
 30
0.0
 40
0.5
100
AcDbArc
 50
180.0
 51
270.0
  0
LINE
  5
35
100
AcDbEntity
  8
025-DWG
100
AcDbLine
 10
1605.853869
 20
382.7
 30
0.0
 11
1606.290334
 21
382.7
 31
0.0
  0
ELLIPSE
  5
36
100
AcDbEntity
  8
025-DWG
100
AcDbEllipse
 10
1606.351269
 20
382.7
 30
0.0
 11
-0.000000000024182
 21
0.5
 31
0.0
210
0.0
220
0.0
230
1.0
 40
0.9948
 41
1.570796326746783
 42
3.141592653541176
  0
ELLIPSE
  5
37
100
AcDbEntity
  8
025-DWG
100
AcDbEllipse
 10
1606.351269
 20
382.7
 30
0.0
 11
-0.0000000000000268
 21
0.5
 31
0.0
210
0.0
220
0.0
230
1.0
 40
0.121869
 41
1.570796326794435
 42
3.141592653589354
  0
LINE
  5
38
100
AcDbEntity
  8
025-DWG
100
AcDbLine
 10
1604.874709
 20
382.7
 30
0.0
 11
1605.853869
 21
382.7
 31
0.0
  0
LINE
  5
39
100
AcDbEntity
  8
035-DWG
100
AcDbLine
 10
1606.351269
 20
382.2
 30
0.0
 11
1605.374709
 21
382.2
 31
0.0
  0
ARC
  5
3A
100
AcDbEntity
  8
035-DWG
100
AcDbCircle
 10
1608.724709
 20
377.6
 30
0.0
 40
4.0
100
AcDbArc
 50
90.0
 51
270.0
  0
LINE
  5
3B
100
AcDbEntity
  8
025-DWG
100
AcDbLine
 10
1780.074709
 20
320.9
 30
0.0
 11
1865.074709
 21
320.9
 31
0.0
  0
LINE
  5
3C
100
AcDbEntity
  8
025-DWG
100
AcDbLine
 10
1780.074709
 20
340.3
 30
0.0
 11
1865.074709
 21
340.3
 31
0.0
  0
LINE
  5
3D
100
AcDbEntity
  8
035-DWG
100
AcDbLine
 10
1859.074709
 20
314.9
 30
0.0
 11
1786.074709
 21
314.9
 31
0.0
  0
LINE
  5
3E
100
AcDbEntity
  8
035-DWG
100
AcDbLine
 10
1859.074709
 20
346.3
 30
0.0
 11
1812.862015
 21
346.3
 31
0.0
  0
LINE
  5
3F
100
AcDbEntity
  8
035-DWG
100
AcDbLine
 10
1813.024709
 20
373.6
 30
0.0
 11
1813.024709
 21
347.4
 31
0.0
  0
ARC
  5
40
100
AcDbEntity
  8
035-DWG
100
AcDbCircle
 10
1786.074709
 20
320.9
 30
0.0
 40
6.0
100
AcDbArc
 50
180.0
 51
270.0
  0
ARC
  5
41
100
AcDbEntity
  8
035-DWG
100
AcDbCircle
 10
1786.074709
 20
340.3
 30
0.0
 40
6.0
100
AcDbArc
 50
146.632987
 51
180.0
  0
LINE
  5
42
100
AcDbEntity
  8
035-DWG
100
AcDbLine
 10
1780.074709
 20
340.3
 30
0.0
 11
1780.074709
 21
320.9
 31
0.0
  0
ARC
  5
43
100
AcDbEntity
  8
035-DWG
100
AcDbCircle
 10
1809.224709
 20
347.4
 30
0.0
 40
3.8
100
AcDbArc
 50
270.0
 51
360.0
  0
LINE
  5
44
100
AcDbEntity
  8
025-DWG
100
AcDbLine
 10
1786.074709
 20
343.6
 30
0.0
 11
1786.074709
 21
314.9
 31
0.0
  0
CIRCLE
  5
45
100
AcDbEntity
  8
025-DWG
100
AcDbCircle
 10
1806.074709
 20
330.6
 30
0.0
 40
2.75
  0
ARC
  5
46
100
AcDbEntity
  8
035-DWG
100
AcDbCircle
 10
1809.224709
 20
347.4
 30
0.0
 40
3.8
100
AcDbArc
 50
343.173551
 51
360.0
  0
ARC
  5
47
100
AcDbEntity
  8
035-DWG
100
AcDbCircle
 10
1813.024709
 20
377.6
 30
0.0
 40
4.0
100
AcDbArc
 50
270.0
 51
90.0
  0
ARC
  5
48
100
AcDbEntity
  8
035-DWG
100
AcDbCircle
 10
1859.074709
 20
320.9
 30
0.0
 40
6.0
100
AcDbArc
 50
270.0
 51
360.0
  0
ARC
  5
49
100
AcDbEntity
  8
035-DWG
100
AcDbCircle
 10
1859.074709
 20
340.3
 30
0.0
 40
6.0
100
AcDbArc
 50
360.0
 51
90.0
  0
LINE
  5
4A
100
AcDbEntity
  8
025-DWG
100
AcDbLine
 10
1859.074709
 20
346.3
 30
0.0
 11
1859.074709
 21
314.9
 31
0.0
  0
CIRCLE
  5
4B
100
AcDbEntity
  8
025-DWG
100
AcDbCircle
 10
1852.074709
 20
330.6
 30
0.0
 40
2.75
  0
LINE
  5
4C
100
AcDbEntity
  8
035-DWG
100
AcDbLine
 10
1865.074709
 20
340.3
 30
0.0
 11
1865.074709
 21
320.9
 31
0.0
  0
LINE
  5
4D
100
AcDbEntity
  8
035-DWG
100
AcDbLine
 10
2084.124709
 20
373.1
 30
0.0
 11
2084.124709
 21
343.6
 31
0.0
  0
LINE
  5
4E
100
AcDbEntity
  8
035-DWG
100
AcDbLine
 10
2085.374709
 20
373.1
 30
0.0
 11
2085.374709
 21
318.6
 31
0.0
  0
LINE
  5
4F
100
AcDbEntity
  8
035-DWG
100
AcDbLine
 10
2014.874709
 20
343.6
 30
0.0
 11
2085.374709
 21
343.6
 31
0.0
  0
LINE
  5
50
100
AcDbEntity
  8
035-DWG
100
AcDbLine
 10
2024.624709
 20
404.0
 30
0.0
 11
2024.624709
 21
374.0
 31
0.0
  0
LINE
  5
51
100
AcDbEntity
  8
025-DWG
100
AcDbLine
 10
2014.874709
 20
375.5
 30
0.0
 11
2024.624709
 21
375.5
 31
0.0
  0
LINE
  5
52
100
AcDbEntity
  8
035-DWG
100
AcDbLine
 10
2014.874709
 20
374.0
 30
0.0
 11
2024.624709
 21
374.0
 31
0.0
  0
LINE
  5
53
100
AcDbEntity
  8
035-DWG
100
AcDbLine
 10
2014.874709
 20
424.0
 30
0.0
 11
2024.624709
 21
424.0
 31
0.0
  0
LINE
  5
54
100
AcDbEntity
  8
025-DWG
100
AcDbLine
 10
2014.874709
 20
402.5
 30
0.0
 11
2024.624709
 21
402.5
 31
0.0
  0
LINE
  5
55
100
AcDbEntity
  8
035-DWG
100
AcDbLine
 10
2014.874709
 20
404.0
 30
0.0
 11
2024.624709
 21
404.0
 31
0.0
  0
LINE
  5
56
100
AcDbEntity
  8
035-DWG
100
AcDbLine
 10
2024.624709
 20
406.126802
 30
0.0
 11
2024.624709
 21
424.0
 31
0.0
  0
LINE
  5
57
100
AcDbEntity
  8
035-DWG
100
AcDbLine
 10
2084.124709
 20
373.1
 30
0.0
 11
2085.374709
 21
373.1
 31
0.0
  0
LINE
  5
58
100
AcDbEntity
  8
035-DWG
  6
CONTINUOUS
 62
     2
100
AcDbLine
 10
1892.690191
 20
952.417664
 30
0.0
 11
2015.976769
 21
952.417664
 31
0.0
  0
LINE
  5
59
100
AcDbEntity
  8
035-DWG
  6
CONTINUOUS
 62
     2
100
AcDbLine
 10
1892.719293
 20
952.200001
 30
0.0
 11
1994.148385
 21
952.200001
 31
0.0
  0
ARC
  5
5A
100
AcDbEntity
  8
035-DWG
100
AcDbCircle
 10
1977.074709
 20
1045.707848
 30
0.0
 40
7.0
100
AcDbArc
 50
0.0
 51
78.929145
  0
LINE
  5
5B
100
AcDbEntity
  8
025-DWG
100
AcDbLine
 10
1981.874147
 20
1047.274522
 30
0.0
 11
1954.256656
 21
1047.274522
 31
0.0
  0
LINE
  5
5C
100
AcDbEntity
  8
025-DWG
100
AcDbLine
 10
1985.174709
 20
1002.926632
 30
0.0
 11
1900.436422
 21
1002.926632
 31
0.0
  0
LINE
  5
5D
100
AcDbEntity
  8
035-DWG
100
AcDbLine
 10
1984.674709
 20
1005.926632
 30
0.0
 11
1900.436422
 21
1005.926632
 31
0.0
  0
LINE
  5
5E
100
AcDbEntity
  8
035-DWG
100
AcDbLine
 10
1985.174709
 20
964.926632
 30
0.0
 11
1895.291654
 21
964.926632
 31
0.0
  0
LINE
  5
5F
100
AcDbEntity
  8
035-DWG
100
AcDbLine
 10
1982.006216
 20
964.400001
 30
0.0
 11
1923.290691
 21
964.400001
 31
0.0
  0
LINE
  5
60
100
AcDbEntity
  8
035-DWG
  6
CONTINUOUS
 62
     2
100
AcDbLine
 10
1994.148385
 20
950.739266
 30
0.0
 11
1892.914599
 21
950.739266
 31
0.0
  0
LINE
  5
61
100
AcDbEntity
  8
035-DWG
  6
CONTINUOUS
 62
     2
100
AcDbLine
 10
1994.148385
 20
928.6
 30
0.0
 11
1895.874709
 21
928.6
 31
0.0
  0
LINE
  5
62
100
AcDbEntity
  8
035-DWG
100
AcDbLine
 10
1610.574709
 20
874.970653
 30
0.0
 11
1610.574709
 21
793.069091
 31
0.0
  0
LINE
  5
63
100
AcDbEntity
  8
035-DWG
100
AcDbLine
 10
1811.174709
 20
874.970653
 30
0.0
 11
1811.174709
 21
793.069091
 31
0.0
  0
LINE
  5
64
100
AcDbEntity
  8
035-DWG
100
AcDbLine
 10
1697.876607
 20
764.252538
 30
0.0
 11
1582.345503
 21
684.678731
 31
0.0
  0
LINE
  5
65
100
AcDbEntity
  8
035-DWG
100
AcDbLine
 10
1701.280024
 20
759.311206
 30
0.0
 11
1585.74892
 21
679.7374
 31
0.0
  0
LINE
  5
66
100
AcDbEntity
  8
025-DWG
100
AcDbLine
 10
1606.074709
 20
786.069091
 30
0.0
 11
1710.874709
 21
786.069091
 31
0.0
  0
LINE
  5
67
100
AcDbEntity
  8
035-DWG
100
AcDbLine
 10
1710.874709
 20
789.569091
 30
0.0
 11
1609.574709
 21
789.569091
 31
0.0
  0
LINE
  5
68
100
AcDbEntity
  8
035-DWG
100
AcDbLine
 10
1612.574709
 20
791.069091
 30
0.0
 11
1710.874709
 21
791.069091
 31
0.0
  0
LINE
  5
69
100
AcDbEntity
  8
035-DWG
100
AcDbLine
 10
1815.674709
 20
776.069091
 30
0.0
 11
1606.074709
 21
776.069091
 31
0.0
  0
LINE
  5
6A
100
AcDbEntity
  8
VHH-035
100
AcDbLine
 10
1511.349237
 20
593.009198
 30
0.0
 11
1509.939618
 21
591.938718
 31
0.0
  0
ARC
  5
6C
100
AcDbEntity
  8
VHH-035
100
AcDbCircle
 10
1508.501075
 20
589.63819
 30
0.0
 40
5.0
100
AcDbArc
 50
30.863553
 51
65.333826
  0
ARC
  5
6D
100
AcDbEntity
  8
VHH-035
100
AcDbCircle
 10
1547.514636
 20
632.240196
 30
0.0
 40
61.5
100
AcDbArc
 50
232.336052
 51
248.357869
  0
ARC
  5
6E
100
AcDbEntity
  8
VHH-035
100
AcDbCircle
 10
1552.486452
 20
615.924908
 30
0.0
 40
49.329327
100
AcDbArc
 50
211.14031
 51
236.589368
  0
ARC
  5
6F
100
AcDbEntity
  8
VHH-035
100
AcDbCircle
 10
1524.601704
 20
602.554382
 30
0.0
 40
24.0
100
AcDbArc
 50
198.840145
 51
232.334067
  0
LINE
  5
70
100
AcDbEntity
  8
VHH-035
100
AcDbLine
 10
1502.209399
 20
595.442093
 30
0.0
 11
1505.35581
 21
596.441463
 31
0.0
  0
LINE
  5
71
100
AcDbEntity
  8
VHH-035
100
AcDbLine
 10
1501.918645
 20
595.199083
 30
0.0
 11
1508.072445
 21
592.373052
 31
0.0
  0
ARC
  5
72
100
AcDbEntity
  8
VHH-035
100
AcDbCircle
 10
1502.360758
 20
594.965554
 30
0.0
 40
0.5
100
AcDbArc
 50
107.620993
 51
198.840145
  0
ARC
  5
73
100
AcDbEntity
  8
VHH-035
100
AcDbCircle
 10
1505.507169
 20
595.964923
 30
0.0
 40
0.5
100
AcDbArc
 50
65.333826
 51
107.620993
  0
LINE
  5
74
100
AcDbEntity
  8
VHH-035
100
AcDbLine
 10
1505.715835
 20
596.4193
 30
0.0
 11
1510.587728
 21
594.181964
 31
0.0
  0
ARC
  5
75
100
AcDbEntity
  8
VHH-035
100
AcDbCircle
 10
1505.985792
 20
587.829278
 30
0.0
 40
5.0
100
AcDbArc
 50
31.14031
 51
65.333826
  0
LINE
  5
76
100
AcDbEntity
  8
VHH-025
100
AcDbLine
 10
1559.688747
 20
538.2
 30
0.0
 11
1559.450188
 21
545.75
 31
0.0
  0
LINE
  5
78
100
AcDbEntity
  8
VHH-025
100
AcDbLine
 10
1558.724986
 20
538.2
 30
0.0
 11
1557.868174
 21
546.3
 31
0.0
  0
LINE
  5
79
100
AcDbEntity
  8
VHH-025
100
AcDbLine
 10
1558.724986
 20
538.2
 30
0.0
 11
1558.502378
 21
545.75
 31
0.0
  0
LINE
  5
7A
100
AcDbEntity
  8
VHH-025
100
AcDbLine
 10
1557.549107
 20
538.2
 30
0.0
 11
1557.34596
 21
545.75
 31
0.0
  0
LINE
  5
7B
100
AcDbEntity
  8
VHH-025
100
AcDbLine
 10
1556.179653
 20
538.2
 30
0.0
 11
1555.484984
 21
546.3
 31
0.0
  0
LINE
  5
7C
100
AcDbEntity
  8
VHH-025
100
AcDbLine
 10
1554.638221
 20
538.2
 30
0.0
 11
1554.48325
 21
545.75
 31
0.0
  0
LINE
  5
7D
100
AcDbEntity
  8
VHH-025
100
AcDbLine
 10
1556.179653
 20
538.2
 30
0.0
 11
1555.99917
 21
545.75
 31
0.0
  0
LINE
  5
7E
100
AcDbEntity
  8
VHH-025
100
AcDbLine
 10
1552.949121
 20
538.2
 30
0.0
 11
1552.460244
 21
546.3
 31
0.0
  0
LINE
  5
7F
100
AcDbEntity
  8
VHH-025
100
AcDbLine
 10
1551.138991
 20
538.2
 30
0.0
 11
1551.041934
 21
545.75
 31
0.0
  0
LINE
  5
80
100
AcDbEntity
  8
VHH-025
100
AcDbLine
 10
1552.949121
 20
538.2
 30
0.0
 11
1552.822106
 21
545.75
 31
0.0
  0
LINE
  5
81
100
AcDbEntity
  8
VHH-025
100
AcDbLine
 10
1529.375985
 20
538.2
 30
0.0
 11
1529.72329
 21
541.015347
 31
0.0
  0
LINE
  5
82
100
AcDbEntity
  8
VHH-025
100
AcDbLine
 10
1534.369765
 20
538.2
 30
0.0
 11
1534.550247
 21
545.75
 31
0.0
  0
LINE
  5
83
100
AcDbEntity
  8
VHH-025
100
AcDbLine
 10
1535.911196
 20
538.2
 30
0.0
 11
1536.066167
 21
545.75
 31
0.0
  0
LINE
  5
84
100
AcDbEntity
  8
VHH-025
100
AcDbLine
 10
1534.369765
 20
538.2
 30
0.0
 11
1535.064434
 21
546.3
 31
0.0
  0
LINE
  5
85
100
AcDbEntity
  8
VHH-025
100
AcDbLine
 10
1533.000311
 20
538.2
 30
0.0
 11
1533.203458
 21
545.75
 31
0.0
  0
LINE
  5
86
100
AcDbEntity
  8
VHH-025
100
AcDbLine
 10
1531.824431
 20
538.2
 30
0.0
 11
1532.04704
 21
545.75
 31
0.0
  0
LINE
  5
87
100
AcDbEntity
  8
VHH-025
100
AcDbLine
 10
1531.824431
 20
538.2
 30
0.0
 11
1532.681243
 21
546.3
 31
0.0
  0
LINE
  5
88
100
AcDbEntity
  8
VHH-025
100
AcDbLine
 10
1537.600296
 20
538.2
 30
0.0
 11
1537.727312
 21
545.75
 31
0.0
  0
LINE
  5
89
100
AcDbEntity
  8
VHH-025
100
AcDbLine
 10
1529.375985
 20
538.2
 30
0.0
 11
1529.639116
 21
545.75
 31
0.0
  0
LINE
  5
8A
100
AcDbEntity
  8
VHH-035
100
AcDbLine
 10
1529.274709
 20
536.2
 30
0.0
 11
1529.609116
 21
545.776175
 31
0.0
  0
LINE
  5
8B
100
AcDbEntity
  8
VHH-025
100
AcDbLine
 10
1530.86067
 20
538.2
 30
0.0
 11
1531.09923
 21
545.75
 31
0.0
  0
LINE
  5
8C
100
AcDbEntity
  8
VHH-025
100
AcDbLine
 10
1530.124228
 20
538.2
 30
0.0
 11
1530.374975
 21
545.75
 31
0.0
  0
LINE
  5
8D
100
AcDbEntity
  8
VHH-025
100
AcDbLine
 10
1530.124228
 20
538.2
 30
0.0
 11
1531.098863
 21
546.3
 31
0.0
  0
LINE
  5
8E
100
AcDbEntity
  8
VHH-025
100
AcDbLine
 10
1529.626717
 20
538.2
 30
0.0
 11
1529.885699
 21
545.75
 31
0.0
  0
LINE
  5
8F
100
AcDbEntity
  8
VHH-025
100
AcDbLine
 10
1537.600296
 20
538.2
 30
0.0
 11
1538.089173
 21
546.3
 31
0.0
  0
LINE
  5
90
100
AcDbEntity
  8
VHH-025
100
AcDbLine
 10
1539.410426
 20
538.2
 30
0.0
 11
1539.507483
 21
545.75
 31
0.0
  0
LINE
  5
91
100
AcDbEntity
  8
VHH-025
100
AcDbLine
 10
1543.759534
 20
538.2
 30
0.0
 11
1543.792579
 21
545.75
 31
0.0
  0
LINE
  5
92
100
AcDbEntity
  8
VHH-025
100
AcDbLine
 10
1541.794443
 20
538.2
 30
0.0
 11
1542.04681
 21
546.3
 31
0.0
  0
LINE
  5
93
100
AcDbEntity
  8
VHH-025
100
AcDbLine
 10
1541.794443
 20
538.2
 30
0.0
 11
1541.860011
 21
545.75
 31
0.0
  0
LINE
  5
94
100
AcDbEntity
  8
VHH-025
100
AcDbLine
 10
1546.789883
 20
538.2
 30
0.0
 11
1546.756839
 21
545.75
 31
0.0
  0
LINE
  5
95
100
AcDbEntity
  8
VHH-025
100
AcDbLine
 10
1548.754974
 20
538.2
 30
0.0
 11
1548.502607
 21
546.3
 31
0.0
  0
LINE
  5
96
100
AcDbEntity
  8
VHH-025
100
AcDbLine
 10
1548.754974
 20
538.2
 30
0.0
 11
1548.689407
 21
545.75
 31
0.0
  0
LINE
  5
97
100
AcDbEntity
  8
VHH-025
100
AcDbLine
 10
1561.173433
 20
538.2
 30
0.0
 11
1560.826128
 21
541.015347
 31
0.0
  0
LINE
  5
98
100
AcDbEntity
  8
VHH-025
100
AcDbLine
 10
1561.173433
 20
538.2
 30
0.0
 11
1560.910301
 21
545.75
 31
0.0
  0
LINE
  5
99
100
AcDbEntity
  8
VHH-035
100
AcDbLine
 10
1560.940301
 20
545.776175
 30
0.0
 11
1561.274709
 21
536.2
 31
0.0
  0
LINE
  5
9A
100
AcDbEntity
  8
VHH-025
100
AcDbLine
 10
1560.9227
 20
538.2
 30
0.0
 11
1560.663718
 21
545.75
 31
0.0
  0
LINE
  5
9B
100
AcDbEntity
  8
VHH-035
100
AcDbLine
 10
1561.274709
 20
536.0
 30
0.0
 11
1589.074709
 21
543.942857
 31
0.0
  0
LINE
  5
9C
100
AcDbEntity
  8
VHH-035
100
AcDbLine
 10
1561.274709
 20
536.0
 30
0.0
 11
1589.074709
 21
543.942857
 31
0.0
  0
LINE
  5
9D
100
AcDbEntity
  8
VHH-025
100
AcDbLine
 10
1560.42519
 20
538.2
 30
0.0
 11
1559.450555
 21
546.3
 31
0.0
  0
LINE
  5
9E
100
AcDbEntity
  8
VHH-035
100
AcDbLine
 10
1551.074709
 20
528.884192
 30
0.0
 11
1609.438893
 21
540.034715
 31
0.0
  0
LINE
  5
9F
100
AcDbEntity
  8
VHH-025
100
AcDbLine
 10
1560.42519
 20
538.2
 30
0.0
 11
1560.174442
 21
545.75
 31
0.0
  0
LINE
  5
A0
100
AcDbEntity
  8
035-DWG
100
AcDbLine
 10
1609.438893
 20
557.813668
 30
0.0
 11
1609.438893
 21
514.457484
 31
0.0
  0
LINE
  5
A1
100
AcDbEntity
  8
VHH-035
100
AcDbLine
 10
1604.972306
 20
514.0
 30
0.0
 11
1551.074709
 21
514.0
 31
0.0
  0
LINE
  5
A2
100
AcDbEntity
  8
VHH-035
100
AcDbLine
 10
1553.274709
 20
491.0
 30
0.0
 11
1553.274709
 21
493.0
 31
0.0
  0
LINE
  5
A3
100
AcDbEntity
  8
VHH-035
100
AcDbLine
 10
1537.274709
 20
491.0
 30
0.0
 11
1537.274709
 21
493.0
 31
0.0
  0
LINE
  5
A4
100
AcDbEntity
  8
VHH-035
100
AcDbLine
 10
1538.274709
 20
490.0
 30
0.0
 11
1552.274709
 21
490.0
 31
0.0
  0
ARC
  5
A5
100
AcDbEntity
  8
VHH-035
100
AcDbCircle
 10
1538.274709
 20
491.0
 30
0.0
 40
1.0
100
AcDbArc
 50
180.0
 51
270.0
  0
ARC
  5
A6
100
AcDbEntity
  8
VHH-035
100
AcDbCircle
 10
1552.274709
 20
491.0
 30
0.0
 40
1.0
100
AcDbArc
 50
270.0
 51
0.0
  0
LINE
  5
A7
100
AcDbEntity
  8
VHH-035
100
AcDbLine
 10
1529.402299
 20
510.0
 30
0.0
 11
1560.076063
 21
510.0
 31
0.0
  0
LINE
  5
A8
100
AcDbEntity
  8
VHH-035
100
AcDbLine
 10
1537.274709
 20
493.0
 30
0.0
 11
1553.274709
 21
493.0
 31
0.0
  0
LINE
  5
A9
100
AcDbEntity
  8
VHH-035
100
AcDbLine
 10
1537.274709
 20
496.0
 30
0.0
 11
1553.274709
 21
496.0
 31
0.0
  0
LINE
  5
AA
100
AcDbEntity
  8
VHH-035
100
AcDbLine
 10
1561.274709
 20
536.0
 30
0.0
 11
1529.274709
 21
536.0
 31
0.0
  0
LINE
  5
AB
100
AcDbEntity
  8
VHH-035
100
AcDbLine
 10
1561.274709
 20
536.2
 30
0.0
 11
1529.274709
 21
536.2
 31
0.0
  0
LINE
  5
AC
100
AcDbEntity
  8
VHH-025
100
AcDbLine
 10
1539.410426
 20
538.2
 30
0.0
 11
1537.600296
 21
538.2
 31
0.0
  0
LINE
  5
AD
100
AcDbEntity
  8
VHH-025
100
AcDbLine
 10
1533.000311
 20
538.2
 30
0.0
 11
1531.824431
 21
538.2
 31
0.0
  0
LINE
  5
AE
100
AcDbEntity
  8
VHH-025
100
AcDbLine
 10
1535.911196
 20
538.2
 30
0.0
 11
1534.369765
 21
538.2
 31
0.0
  0
LINE
  5
AF
100
AcDbEntity
  8
VHH-025
100
AcDbLine
 10
1530.86067
 20
538.2
 30
0.0
 11
1530.124228
 21
538.2
 31
0.0
  0
LINE
  5
B0
100
AcDbEntity
  8
VHH-025
100
AcDbLine
 10
1529.626717
 20
538.2
 30
0.0
 11
1529.34455
 21
538.2
 31
0.0
  0
LINE
  5
B1
100
AcDbEntity
  8
VHH-025
100
AcDbLine
 10
1543.759534
 20
538.2
 30
0.0
 11
1541.794443
 21
538.2
 31
0.0
  0
LINE
  5
B2
100
AcDbEntity
  8
VHH-025
100
AcDbLine
 10
1546.789883
 20
538.2
 30
0.0
 11
1548.754974
 21
538.2
 31
0.0
  0
ARC
  5
B3
100
AcDbEntity
  8
VHH-035
100
AcDbCircle
 10
1535.274709
 20
508.0
 30
0.0
 40
2.0
100
AcDbArc
 50
0.0
 51
90.0
  0
ARC
  5
B4
100
AcDbEntity
  8
VHH-035
100
AcDbCircle
 10
1529.402299
 20
511.0
 30
0.0
 40
1.0
100
AcDbArc
 50
178.0
 51
270.0
  0
ARC
  5
B5
100
AcDbEntity
  8
VHH-035
100
AcDbCircle
 10
1535.274709
 20
494.5
 30
0.0
 40
2.5
100
AcDbArc
 50
323.130102
 51
36.869898
  0
LINE
  5
B6
100
AcDbEntity
  8
VHH-035
100
AcDbLine
 10
1537.274709
 20
496.0
 30
0.0
 11
1537.274709
 21
508.0
 31
0.0
  0
LINE
  5
B7
100
AcDbEntity
  8
VHH-035
100
AcDbLine
 10
1528.402908
 20
511.034899
 30
0.0
 11
1529.274709
 21
536.0
 31
0.0
  0
LINE
  5
B8
100
AcDbEntity
  8
VHH-025
100
AcDbLine
 10
1551.138991
 20
538.2
 30
0.0
 11
1552.949121
 21
538.2
 31
0.0
  0
LINE
  5
B9
100
AcDbEntity
  8
VHH-025
100
AcDbLine
 10
1554.638221
 20
538.2
 30
0.0
 11
1556.179653
 21
538.2
 31
0.0
  0
LINE
  5
BA
100
AcDbEntity
  8
VHH-025
100
AcDbLine
 10
1557.549107
 20
538.2
 30
0.0
 11
1558.724986
 21
538.2
 31
0.0
  0
ARC
  5
BB
100
AcDbEntity
  8
VHH-035
100
AcDbCircle
 10
1555.274709
 20
508.0
 30
0.0
 40
2.0
100
AcDbArc
 50
90.0
 51
180.0
  0
ARC
  5
BC
100
AcDbEntity
  8
VHH-035
100
AcDbCircle
 10
1554.435609
 20
511.0
 30
0.0
 40
1.0
100
AcDbArc
 50
270.0
 51
350.0
  0
LINE
  5
BD
100
AcDbEntity
  8
VHH-035
100
AcDbLine
 10
1555.420417
 20
510.826352
 30
0.0
 11
1555.980017
 21
514.0
 31
0.0
  0
LINE
  5
BE
100
AcDbEntity
  8
VHH-035
100
AcDbLine
 10
1551.074709
 20
514.0
 30
0.0
 11
1551.074709
 21
529.11134
 31
0.0
  0
ARC
  5
BF
100
AcDbEntity
  8
VHH-035
100
AcDbCircle
 10
1555.274709
 20
494.5
 30
0.0
 40
2.5
100
AcDbArc
 50
143.130102
 51
216.869898
  0
LINE
  5
C0
100
AcDbEntity
  8
VHH-035
100
AcDbLine
 10
1553.274709
 20
496.0
 30
0.0
 11
1553.274709
 21
508.0
 31
0.0
  0
LINE
  5
C1
100
AcDbEntity
  8
VHH-035
100
AcDbLine
 10
1561.277146
 20
535.930201
 30
0.0
 11
1561.274709
 21
536.0
 31
0.0
  0
LINE
  5
C2
100
AcDbEntity
  8
VHH-025
100
AcDbLine
 10
1560.9227
 20
538.2
 30
0.0
 11
1561.204867
 21
538.2
 31
0.0
  0
LINE
  5
C3
100
AcDbEntity
  8
VHH-035
100
AcDbLine
 10
1561.06087
 20
510.826352
 30
0.0
 11
1561.62047
 21
514.0
 31
0.0
  0
LINE
  5
C4
100
AcDbEntity
  8
VHH-025
100
AcDbLine
 10
1559.688747
 20
538.2
 30
0.0
 11
1560.42519
 21
538.2
 31
0.0
  0
ARC
  5
C5
100
AcDbEntity
  8
VHH-035
100
AcDbCircle
 10
1560.076063
 20
511.0
 30
0.0
 40
1.0
100
AcDbArc
 50
270.0
 51
350.0
  0
ARC
  5
C6
100
AcDbEntity
  8
VHH-035
100
AcDbCircle
 10
1541.558795
 20
554.19737
 30
0.0
 40
26.830235
100
AcDbArc
 50
290.773298
 51
317.293646
  0
LINE
  5
C7
100
AcDbEntity
  8
025-DWG
100
AcDbLine
 10
1627.47268
 20
453.1
 30
0.0
 11
1633.129534
 21
453.1
 31
0.0
  0
LINE
  5
C8
100
AcDbEntity
  8
035-DWG
100
AcDbLine
 10
1624.860147
 20
448.6
 30
0.0
 11
1635.466749
 21
448.6
 31
0.0
  0
LINE
  5
C9
100
AcDbEntity
  8
025-DWG
100
AcDbLine
 10
1627.47268
 20
478.1
 30
0.0
 11
1633.129534
 21
478.1
 31
0.0
  0
LINE
  5
CA
100
AcDbEntity
  8
035-DWG
100
AcDbLine
 10
1624.860147
 20
482.6
 30
0.0
 11
1635.466749
 21
482.6
 31
0.0
  0
LINE
  5
CB
100
AcDbEntity
  8
025-DWG
100
AcDbLine
 10
1627.47268
 20
478.1
 30
0.0
 11
1627.47268
 21
453.1
 31
0.0
  0
LINE
  5
CC
100
AcDbEntity
  8
035-DWG
100
AcDbLine
 10
1624.860147
 20
482.6
 30
0.0
 11
1624.860147
 21
448.6
 31
0.0
  0
LINE
  5
CD
100
AcDbEntity
  8
035-DWG
100
AcDbLine
 10
1635.466749
 20
482.6
 30
0.0
 11
1635.466749
 21
448.6
 31
0.0
  0
LINE
  5
CE
100
AcDbEntity
  8
035-DWG
100
AcDbLine
 10
1600.874709
 20
511.003681
 30
0.0
 11
1600.874709
 21
511.0
 31
0.0
  0
LINE
  5
CF
100
AcDbEntity
  8
035-DWG
100
AcDbLine
 10
1600.874709
 20
511.003681
 30
0.0
 11
1600.874709
 21
511.503812
 31
0.0
  0
LINE
  5
D0
100
AcDbEntity
  8
035-DWG
100
AcDbLine
 10
1600.874709
 20
511.503812
 30
0.0
 11
1600.874709
 21
512.429874
 31
0.0
  0
LINE
  5
D1
100
AcDbEntity
  8
035-DWG
100
AcDbLine
 10
1608.54405
 20
518.0
 30
0.0
 11
1606.290334
 21
518.0
 31
0.0
  0
LINE
  5
D2
100
AcDbEntity
  8
035-DWG
100
AcDbLine
 10
1605.853869
 20
518.0
 30
0.0
 11
1606.290334
 21
518.0
 31
0.0
  0
LINE
  5
D3
100
AcDbEntity
  8
035-DWG
100
AcDbLine
 10
1605.174336
 20
518.0
 30
0.0
 11
1605.853869
 21
518.0
 31
0.0
  0
LINE
  5
D4
100
AcDbEntity
  8
035-DWG
100
AcDbLine
 10
1604.874709
 20
512.5
 30
0.0
 11
1604.874709
 21
511.647531
 31
0.0
  0
LWPOLYLINE
  5
D5
100
AcDbEntity
  8
035-DWG
100
AcDbPolyline
 90
        3
 70
     0
 43
0.0
 10
1604.875288
 20
510.867727
 10
1604.874992
 20
510.863952
 10
1604.874709
 20
510.860317
  0
LINE
  5
D6
100
AcDbEntity
  8
035-DWG
100
AcDbLine
 10
1604.875286
 20
511.647552
 30
0.0
 11
1604.875286
 21
510.867728
 31
0.0
  0
LWPOLYLINE
  5
D7
100
AcDbEntity
  8
035-DWG
100
AcDbPolyline
 90
       41
 70
     0
 43
0.0
 10
1604.874709
 20
512.5
 10
1604.874965
 20
512.503679
 10
1604.875735
 20
512.514782
 10
1604.877021
 20
512.533405
 10
1604.878828
 20
512.559644
 10
1604.881157
 20
512.593597
 10
1604.884012
 20
512.635361
 10
1604.887395
 20
512.685031
 10
1604.891309
 20
512.742705
 10
1604.895754
 20
512.80845
 10
1604.900716
 20
512.882223
 10
1604.906179
 20
512.963962
 10
1604.912128
 20
513.0536
 10
1604.918545
 20
513.151074
 10
1604.925417
 20
513.256319
 10
1604.932726
 20
513.369271
 10
1604.940457
 20
513.489865
 10
1604.948592
 20
513.618038
 10
1604.957104
 20
513.753636
 10
1604.965963
 20
513.89646
 10
1604.975142
 20
514.046306
 10
1604.984612
 20
514.202975
 10
1604.994343
 20
514.366264
 10
1605.004308
 20
514.535973
 10
1605.014476
 20
514.711901
 10
1605.024817
 20
514.893826
 10
1605.035295
 20
515.081437
 10
1605.045879
 20
515.274396
 10
1605.056534
 20
515.472366
 10
1605.067228
 20
515.67501
 10
1605.077929
 20
515.88199
 10
1605.088603
 20
516.09297
 10
1605.099219
 20
516.307612
 10
1605.108591
 20
516.501422
 10
1605.118014
 20
516.700568
 10
1605.127464
 20
516.904915
 10
1605.136919
 20
517.114329
 10
1605.146356
 20
517.328679
 10
1605.155753
 20
517.547829
 10
1605.165088
 20
517.771647
 10
1605.174336
 20
518.0
  0
LINE
  5
D8
100
AcDbEntity
  8
035-DWG
100
AcDbLine
 10
1600.874709
 20
511.0
 30
0.0
 11
1604.874709
 21
510.860317
 31
0.0
  0
LWPOLYLINE
  5
D9
100
AcDbEntity
  8
035-DWG
100
AcDbPolyline
 90
        3
 70
     0
 43
0.0
 10
1600.874709
 20
512.429874
 10
1602.883594
 20
512.520671
 10
1604.882363
 20
512.611342
  0
LWPOLYLINE
  5
DA
100
AcDbEntity
  8
025-DWG
100
AcDbPolyline
 90
        3
 70
     0
 43
0.0
 10
1604.875286
 20
511.647552
 10
1602.88016
 20
511.575682
 10
1600.874709
 20
511.503812
  0
LINE
  5
DB
100
AcDbEntity
  8
035-DWG
100
AcDbLine
 10
1609.438893
 20
514.457484
 30
0.0
 11
1608.54405
 21
514.457484
 31
0.0
  0
ARC
  5
DC
100
AcDbEntity
  8
VHH-035
100
AcDbCircle
 10
1589.551493
 20
553.168034
 30
0.0
 40
9.23749
100
AcDbArc
 50
267.041417
 51
289.524204
  0
ARC
  5
DD
100
AcDbEntity
  8
VHH-035
100
AcDbCircle
 10
1552.486452
 20
615.924908
 30
0.0
 40
46.241633
100
AcDbArc
 50
210.863553
 51
229.812431
  0
LINE
  5
DE
100
AcDbEntity
  8
VHH-035
100
AcDbLine
 10
1552.774709
 20
546.5
 30
0.0
 11
1539.274709
 21
546.5
 31
0.0
  0
ARC
  5
DF
100
AcDbEntity
  8
VHH-035
100
AcDbCircle
 10
1532.117014
 20
548.934543
 30
0.0
 40
25.0
100
AcDbArc
 50
25.0
 51
54.192291
  0
LINE
  5
E0
100
AcDbEntity
  8
VHH-035
100
AcDbLine
 10
1530.358659
 20
546.5
 30
0.0
 11
1560.190758
 21
546.5
 31
0.0
  0
ARC
  5
E1
100
AcDbEntity
  8
VHH-035
100
AcDbCircle
 10
1510.390277
 20
518.369425
 30
0.0
 40
62.5
100
AcDbArc
 50
54.433004
 51
71.886042
  0
ARC
  5
E2
100
AcDbEntity
  8
VHH-035
100
AcDbCircle
 10
1552.486452
 20
615.924908
 30
0.0
 40
49.329327
100
AcDbArc
 50
236.589368
 51
244.279377
  0
ARC
  5
E3
100
AcDbEntity
  8
VHH-035
100
AcDbCircle
 10
1548.111224
 20
634.916525
 30
0.0
 40
60.0
100
AcDbArc
 50
244.918514
 51
252.252667
  0
ARC
  5
E4
100
AcDbEntity
  8
VHH-035
100
AcDbCircle
 10
1552.486452
 20
615.924908
 30
0.0
 40
46.241633
100
AcDbArc
 50
229.812431
 51
244.279377
  0
ARC
  5
E5
100
AcDbEntity
  8
VHH-035
100
AcDbCircle
 10
1539.274709
 20
550.0
 30
0.0
 40
3.5
100
AcDbArc
 50
96.0
 51
203.021422
  0
ARC
  5
E6
100
AcDbEntity
  8
VHH-035
100
AcDbCircle
 10
1539.274709
 20
550.0
 30
0.0
 40
3.5
100
AcDbArc
 50
203.021422
 51
270.0
  0
ARC
  5
E7
100
AcDbEntity
  8
VHH-035
100
AcDbCircle
 10
1533.838369
 20
565.698272
 30
0.0
 40
5.0
100
AcDbArc
 50
322.675716
 51
14.722142
  0
ARC
  5
E8
100
AcDbEntity
  8
VHH-035
100
AcDbCircle
 10
1549.004727
 20
554.134442
 30
0.0
 40
14.071985
100
AcDbArc
 50
142.675716
 51
203.021422
  0
ARC
  5
E9
100
AcDbEntity
  8
VHH-025
100
AcDbCircle
 10
1538.721423
 20
545.722576
 30
0.0
 40
0.99449
100
AcDbArc
 50
128.580625
 51
178.419809
  0
ARC
  5
EA
100
AcDbEntity
  8
VHH-025
100
AcDbCircle
 10
1535.243875
 20
546.321112
 30
0.0
 40
0.180679
100
AcDbArc
 50
98.074916
 51
186.710338
  0
ARC
  5
EB
100
AcDbEntity
  8
VHH-025
100
AcDbCircle
 10
1532.923738
 20
546.259874
 30
0.0
 40
0.245793
100
AcDbArc
 50
102.326831
 51
170.604314
  0
ARC
  5
EC
100
AcDbEntity
  8
VHH-025
100
AcDbCircle
 10
1535.327646
 20
545.762464
 30
0.0
 40
0.777499
100
AcDbArc
 50
108.449943
 51
180.918575
  0
ARC
  5
ED
100
AcDbEntity
  8
VHH-025
100
AcDbCircle
 10
1536.870168
 20
545.774683
 30
0.0
 40
0.804379
100
AcDbArc
 50
115.616291
 51
181.758476
  0
ARC
  5
EE
100
AcDbEntity
  8
VHH-025
100
AcDbCircle
 10
1534.026261
 20
545.707334
 30
0.0
 40
0.823909
100
AcDbArc
 50
105.829218
 51
177.031654
  0
ARC
  5
EF
100
AcDbEntity
  8
VHH-025
100
AcDbCircle
 10
1532.806918
 20
545.74734
 30
0.0
 40
0.759883
100
AcDbArc
 50
97.905868
 51
179.799397
  0
ARC
  5
F0
100
AcDbEntity
  8
VHH-025
100
AcDbCircle
 10
1530.718172
 20
545.666262
 30
0.0
 40
0.836674
100
AcDbArc
 50
94.801375
 51
174.255958
  0
ARC
  5
F1
100
AcDbEntity
  8
VHH-025
100
AcDbCircle
 10
1530.40655
 20
545.732393
 30
0.0
 40
0.767636
100
AcDbArc
 50
89.502437
 51
178.68571
  0
ARC
  5
F2
100
AcDbEntity
  8
VHH-025
100
AcDbCircle
 10
1531.312041
 20
546.286574
 30
0.0
 40
0.213601
100
AcDbArc
 50
92.321809
 51
176.396337
  0
ARC
  5
F3
100
AcDbEntity
  8
VHH-035
100
AcDbCircle
 10
1530.358659
 20
545.75
 30
0.0
 40
0.75
100
AcDbArc
 50
90.0
 51
178.0
  0
ARC
  5
F4
100
AcDbEntity
  8
VHH-025
100
AcDbCircle
 10
1531.172896
 20
545.702213
 30
0.0
 40
0.799351
100
AcDbArc
 50
93.584
 51
176.572659
  0
ARC
  5
F5
100
AcDbEntity
  8
VHH-025
100
AcDbCircle
 10
1531.949847
 20
545.657295
 30
0.0
 40
0.855654
100
AcDbArc
 50
99.980708
 51
173.780152
  0
ARC
  5
F6
100
AcDbEntity
  8
VHH-025
100
AcDbCircle
 10
1538.426211
 20
546.246677
 30
0.0
 40
0.34123
100
AcDbArc
 50
132.065275
 51
171.0097
  0
ARC
  5
F7
100
AcDbEntity
  8
VHH-025
100
AcDbCircle
 10
1548.081451
 20
546.289972
 30
0.0
 40
0.421276
100
AcDbArc
 50
1.363952
 51
29.904209
  0
ARC
  5
F8
100
AcDbEntity
  8
VHH-025
100
AcDbCircle
 10
1542.467967
 20
546.289972
 30
0.0
 40
0.421276
100
AcDbArc
 50
150.095791
 51
178.636048
  0
ARC
  5
F9
100
AcDbEntity
  8
VHH-025
100
AcDbCircle
 10
1543.214294
 20
545.801283
 30
0.0
 40
1.355254
100
AcDbArc
 50
148.964987
 51
182.168589
  0
ARC
  5
FA
100
AcDbEntity
  8
VHH-025
100
AcDbCircle
 10
1545.678239
 20
545.88672
 30
0.0
 40
1.890611
100
AcDbArc
 50
161.071874
 51
184.146986
  0
ARC
  5
FB
100
AcDbEntity
  8
VHH-025
100
AcDbCircle
 10
1544.871178
 20
545.88672
 30
0.0
 40
1.890611
100
AcDbArc
 50
355.853014
 51
18.928126
  0
ARC
  5
FC
100
AcDbEntity
  8
VHH-025
100
AcDbCircle
 10
1547.335123
 20
545.801283
 30
0.0
 40
1.355254
100
AcDbArc
 50
357.831411
 51
31.035013
  0
ARC
  5
FD
100
AcDbEntity
  8
VHH-035
100
AcDbCircle
 10
1542.969458
 20
557.929646
 30
0.0
 40
4.0
100
AcDbArc
 50
276.0
 51
43.450691
  0
ARC
  5
FE
100
AcDbEntity
  8
VHH-025
100
AcDbCircle
 10
1540.449425
 20
545.820569
 30
0.0
 40
0.944582
100
AcDbArc
 50
134.003849
 51
184.284497
  0
ARC
  5
FF
100
AcDbEntity
  8
VHH-035
100
AcDbCircle
 10
1509.088113
 20
525.832821
 30
0.0
 40
50.670673
100
AcDbArc
 50
43.450691
 51
53.824524
  0
LINE
  5
100
100
AcDbEntity
  8
VHH-035
100
AcDbLine
 10
1538.908859
 20
553.480827
 30
0.0
 11
1543.188296
 21
553.930614
 31
0.0
  0
ARC
  5
101
100
AcDbEntity
  8
VHH-035
100
AcDbCircle
 10
1542.561125
 20
559.897745
 30
0.0
 40
6.0
100
AcDbArc
 50
276.0
 51
45.502135
  0
ARC
  5
102
100
AcDbEntity
  8
VHH-035
100
AcDbCircle
 10
1509.088113
 20
525.832821
 30
0.0
 40
50.670673
100
AcDbArc
 50
53.824524
 51
64.279377
  0
ARC
  5
103
100
AcDbEntity
  8
VHH-035
100
AcDbCircle
 10
1509.088113
 20
525.832821
 30
0.0
 40
53.758367
100
AcDbArc
 50
45.502135
 51
64.279377
  0
ARC
  5
104
100
AcDbEntity
  8
VHH-025
100
AcDbCircle
 10
1559.237376
 20
546.286574
 30
0.0
 40
0.213601
100
AcDbArc
 50
3.603663
 51
87.678191
  0
ARC
  5
105
100
AcDbEntity
  8
VHH-025
100
AcDbCircle
 10
1558.59957
 20
545.657295
 30
0.0
 40
0.855654
100
AcDbArc
 50
6.219848
 51
80.019292
  0
ARC
  5
106
100
AcDbEntity
  8
VHH-035
100
AcDbCircle
 10
1552.774709
 20
548.5
 30
0.0
 40
2.0
100
AcDbArc
 50
270.0
 51
360.0
  0
ARC
  5
107
100
AcDbEntity
  8
VHH-025
100
AcDbCircle
 10
1553.67925
 20
545.774683
 30
0.0
 40
0.804379
100
AcDbArc
 50
358.241524
 51
64.383709
  0
ARC
  5
108
100
AcDbEntity
  8
VHH-025
100
AcDbCircle
 10
1552.123206
 20
546.246677
 30
0.0
 40
0.34123
100
AcDbArc
 50
8.9903
 51
47.934725
  0
ARC
  5
109
100
AcDbEntity
  8
VHH-025
100
AcDbCircle
 10
1550.099992
 20
545.820569
 30
0.0
 40
0.944582
100
AcDbArc
 50
355.715503
 51
45.996151
  0
ARC
  5
10A
100
AcDbEntity
  8
VHH-025
100
AcDbCircle
 10
1551.827994
 20
545.722576
 30
0.0
 40
0.99449
100
AcDbArc
 50
1.580191
 51
51.419375
  0
ARC
  5
10B
100
AcDbEntity
  8
VHH-025
100
AcDbCircle
 10
1557.625679
 20
546.259874
 30
0.0
 40
0.245793
100
AcDbArc
 50
9.395686
 51
77.673169
  0
ARC
  5
10C
100
AcDbEntity
  8
VHH-025
100
AcDbCircle
 10
1555.305542
 20
546.321112
 30
0.0
 40
0.180679
100
AcDbArc
 50
353.289662
 51
81.925084
  0
ARC
  5
10D
100
AcDbEntity
  8
VHH-025
100
AcDbCircle
 10
1556.523156
 20
545.707334
 30
0.0
 40
0.823909
100
AcDbArc
 50
2.968346
 51
74.170782
  0
ARC
  5
10E
100
AcDbEntity
  8
VHH-025
100
AcDbCircle
 10
1555.221772
 20
545.762464
 30
0.0
 40
0.777499
100
AcDbArc
 50
359.081425
 51
71.550057
  0
LINE
  5
10F
100
AcDbEntity
  8
VHH-035
100
AcDbLine
 10
1554.774709
 20
559.5
 30
0.0
 11
1554.774709
 21
548.5
 31
0.0
  0
LINE
  5
110
100
AcDbEntity
  8
VHH-035
100
AcDbLine
 10
1554.774709
 20
559.5
 30
0.0
 11
1554.774709
 21
556.5
 31
0.0
  0
LINE
  5
111
100
AcDbEntity
  8
VHH-035
100
AcDbLine
 10
1554.774709
 20
556.5
 30
0.0
 11
1554.774709
 21
559.5
 31
0.0
  0
LINE
  5
112
100
AcDbEntity
  8
VHH-035
100
AcDbLine
 10
1554.774709
 20
559.5
 30
0.0
 11
1554.774709
 21
556.5
 31
0.0
  0
ARC
  5
113
100
AcDbEntity
  8
VHH-025
100
AcDbCircle
 10
1557.7425
 20
545.74734
 30
0.0
 40
0.759883
100
AcDbArc
 50
0.200603
 51
82.094132
  0
ARC
  5
114
100
AcDbEntity
  8
VHH-035
100
AcDbCircle
 10
1560.190758
 20
545.75
 30
0.0
 40
0.75
100
AcDbArc
 50
2.0
 51
90.0
  0
ARC
  5
115
100
AcDbEntity
  8
VHH-025
100
AcDbCircle
 10
1560.142867
 20
545.732393
 30
0.0
 40
0.767636
100
AcDbArc
 50
1.31429
 51
90.497563
  0
ARC
  5
116
100
AcDbEntity
  8
VHH-025
100
AcDbCircle
 10
1559.831245
 20
545.666262
 30
0.0
 40
0.836674
100
AcDbArc
 50
5.744042
 51
85.198625
  0
ARC
  5
117
100
AcDbEntity
  8
VHH-025
100
AcDbCircle
 10
1559.376521
 20
545.702213
 30
0.0
 40
0.799351
100
AcDbArc
 50
3.427341
 51
86.416
  0
ARC
  5
118
100
AcDbEntity
  8
VHH-035
100
AcDbCircle
 10
1608.13052
 20
561.15387
 30
0.0
 40
22.773337
100
AcDbArc
 50
227.135963
 51
247.197494
  0
LINE
  5
119
100
AcDbEntity
  8
VHH-035
100
AcDbLine
 10
1599.304579
 20
540.160356
 30
0.0
 11
1609.438893
 21
542.026281
 31
0.0
  0
ARC
  5
11A
100
AcDbEntity
  8
035-DWG
100
AcDbCircle
 10
1584.047211
 20
682.208065
 30
0.0
 40
3.0
100
AcDbArc
 50
124.557719
 51
304.557719
  0
POINT
  5
11B
100
AcDbEntity
  8
DEFPOINTS
  6
BYBLOCK
 62
     0
100
AcDbPoint
 10
1609.574709
 20
789.569091
 30
0.0
  0
ARC
  5
11D
100
AcDbEntity
  8
035-DWG
100
AcDbCircle
 10
1612.574709
 20
793.069091
 30
0.0
 40
2.0
100
AcDbArc
 50
180.0
 51
270.0
  0
ARC
  5
11E
100
AcDbEntity
  8
035-DWG
100
AcDbCircle
 10
1617.024709
 20
792.369091
 30
0.0
 40
2.8
100
AcDbArc
 50
207.664004
 51
332.335996
  0
LINE
  5
11F
100
AcDbEntity
  8
035-DWG
100
AcDbLine
 10
1606.074709
 20
786.069091
 30
0.0
 11
1606.074709
 21
776.069091
 31
0.0
  0
ARC
  5
120
100
AcDbEntity
  8
035-DWG
100
AcDbCircle
 10
1609.574709
 20
786.069091
 30
0.0
 40
3.5
100
AcDbArc
 50
90.0
 51
180.0
  0
LINE
  5
121
100
AcDbEntity
  8
035-DWG
100
AcDbLine
 10
1809.174709
 20
791.069091
 30
0.0
 11
1710.874709
 21
791.069091
 31
0.0
  0
LINE
  5
122
100
AcDbEntity
  8
035-DWG
100
AcDbLine
 10
1710.874709
 20
789.569091
 30
0.0
 11
1812.174709
 21
789.569091
 31
0.0
  0
LINE
  5
123
100
AcDbEntity
  8
025-DWG
100
AcDbLine
 10
1815.674709
 20
786.069091
 30
0.0
 11
1710.874709
 21
786.069091
 31
0.0
  0
CIRCLE
  5
124
100
AcDbEntity
  8
035-DWG
100
AcDbCircle
 10
1710.874709
 20
769.562434
 30
0.0
 40
2.6
  0
LINE
  5
125
100
AcDbEntity
  8
035-DWG
100
AcDbLine
 10
1712.415114
 20
776.876788
 30
0.0
 11
1700.915983
 21
768.956586
 31
0.0
  0
POLYLINE
  5
126
100
AcDbEntity
  8
035-DWG
100
AcDb2dPolyline
 66
     1
 10
0.0
 20
0.0
 30
0.0
 70
     2
  0
VERTEX
  5
127
100
AcDbEntity
  8
035-DWG
100
AcDbVertex
100
AcDb2dVertex
 10
1718.257646
 20
768.394169
 30
0.0
 42
0.028161
  0
VERTEX
  5
128
100
AcDbEntity
  8
035-DWG
100
AcDbVertex
100
AcDb2dVertex
 10
1717.165688
 20
770.748823
 30
0.0
 42
0.028161
 70
     1
  0
VERTEX
  5
129
100
AcDbEntity
  8
035-DWG
100
AcDbVertex
100
AcDb2dVertex
 10
1715.81604
 20
772.965851
 30
0.0
 42
0.028161
  0
VERTEX
  5
12A
100
AcDbEntity
  8
035-DWG
100
AcDbVertex
100
AcDb2dVertex
 10
1714.2258
 20
775.017169
 30
0.0
 42
0.028161
 70
     1
  0
VERTEX
  5
12B
100
AcDbEntity
  8
035-DWG
100
AcDbVertex
100
AcDb2dVertex
 10
1712.415114
 20
776.876788
 30
0.0
  0
SEQEND
  5
12C
100
AcDbEntity
  8
035-DWG
  0
LINE
  5
12D
100
AcDbEntity
  8
035-DWG
100
AcDbLine
 10
1718.257646
 20
768.394169
 30
0.0
 11
1706.758515
 21
760.473968
 31
0.0
  0
ARC
  5
12E
100
AcDbEntity
  8
035-DWG
100
AcDbCircle
 10
1695.040427
 20
768.370313
 30
0.0
 40
5.0
100
AcDbArc
 50
304.557719
 51
322.538212
  0
ARC
  5
12F
100
AcDbEntity
  8
035-DWG
100
AcDbCircle
 10
1704.116205
 20
755.193431
 30
0.0
 40
5.0
100
AcDbArc
 50
106.577227
 51
124.557719
  0
ARC
  5
130
100
AcDbEntity
  8
035-DWG
100
AcDbCircle
 10
1695.613842
 20
769.118636
 30
0.0
 40
5.0
100
AcDbArc
 50
322.538212
 51
338.738033
  0
LINE
  5
131
100
AcDbEntity
  8
035-DWG
100
AcDbLine
 10
1699.582638
 20
766.077475
 30
0.0
 11
1699.009222
 21
765.329152
 31
0.0
  0
LINE
  5
132
100
AcDbEntity
  8
035-DWG
100
AcDbLine
 10
1700.915983
 20
768.956586
 30
0.0
 11
1700.273503
 21
767.305473
 31
0.0
  0
LWPOLYLINE
  5
133
100
AcDbEntity
  8
025-DWG
100
AcDbPolyline
 90
        3
 70
     0
 43
0.0
 10
1701.99258
 20
764.970866
 42
-0.036834
 10
1701.426637
 20
766.303974
 42
-0.068936
 10
1700.915983
 20
768.956586
  0
LINE
  5
134
100
AcDbEntity
  8
035-DWG
100
AcDbLine
 10
1706.758515
 20
760.473968
 30
0.0
 11
1704.986844
 21
760.462298
 31
0.0
  0
ARC
  5
135
100
AcDbEntity
  8
035-DWG
100
AcDbCircle
 10
1705.019778
 20
755.462406
 30
0.0
 40
5.0
100
AcDbArc
 50
90.377405
 51
106.577227
  0
LINE
  5
136
100
AcDbEntity
  8
035-DWG
100
AcDbLine
 10
1703.593241
 20
760.254587
 30
0.0
 11
1702.689668
 21
759.985611
 31
0.0
  0
LWPOLYLINE
  5
137
100
AcDbEntity
  8
025-DWG
100
AcDbPolyline
 90
        3
 70
     0
 43
0.0
 10
1706.758515
 20
760.473968
 42
-0.068936
 10
1704.462219
 20
761.896692
 42
-0.01937
 10
1703.894668
 20
762.405706
 42
-0.068936
  0
LINE
  5
138
100
AcDbEntity
  8
035-DWG
100
AcDbLine
 10
1815.674709
 20
786.069091
 30
0.0
 11
1815.674709
 21
776.069091
 31
0.0
  0
ARC
  5
139
100
AcDbEntity
  8
035-DWG
100
AcDbCircle
 10
1804.724709
 20
792.369091
 30
0.0
 40
2.8
100
AcDbArc
 50
207.664004
 51
332.335996
  0
ARC
  5
13A
100
AcDbEntity
  8
035-DWG
100
AcDbCircle
 10
1809.174709
 20
793.069091
 30
0.0
 40
2.0
100
AcDbArc
 50
270.0
 51
360.0
  0
POINT
  5
13B
100
AcDbEntity
  8
DEFPOINTS
  6
BYBLOCK
 62
     0
100
AcDbPoint
 10
1812.174709
 20
789.569091
 30
0.0
  0
ARC
  5
13C
100
AcDbEntity
  8
035-DWG
100
AcDbCircle
 10
1812.174709
 20
786.069091
 30
0.0
 40
3.5
100
AcDbArc
 50
0.0
 51
90.0
  0
LINE
  5
13D
100
AcDbEntity
  8
025-DWG
100
AcDbLine
 10
1610.574709
 20
879.970653
 30
0.0
 11
1710.874709
 21
879.970653
 31
0.0
  0
LINE
  5
13E
100
AcDbEntity
  8
025-DWG
100
AcDbLine
 10
1610.574709
 20
874.970653
 30
0.0
 11
1710.874709
 21
874.970653
 31
0.0
  0
LINE
  5
13F
100
AcDbEntity
  8
035-DWG
100
AcDbLine
 10
1603.024709
 20
900.269091
 30
0.0
 11
1710.874709
 21
900.269091
 31
0.0
  0
LINE
  5
140
100
AcDbEntity
  8
035-DWG
100
AcDbLine
 10
1601.224709
 20
893.469091
 30
0.0
 11
1710.874709
 21
893.469091
 31
0.0
  0
LINE
  5
141
100
AcDbEntity
  8
025-DWG
100
AcDbLine
 10
1601.224709
 20
898.469091
 30
0.0
 11
1710.874709
 21
898.469091
 31
0.0
  0
LINE
  5
142
100
AcDbEntity
  8
035-DWG
100
AcDbLine
 10
1636.411605
 20
907.859034
 30
0.0
 11
1684.61834
 21
909.363686
 31
0.0
  0
LINE
  5
143
100
AcDbEntity
  8
035-DWG
100
AcDbLine
 10
1610.574709
 20
879.970653
 30
0.0
 11
1610.574709
 21
893.469091
 31
0.0
  0
ARC
  5
144
100
AcDbEntity
  8
035-DWG
100
AcDbCircle
 10
1610.574709
 20
877.470653
 30
0.0
 40
2.5
100
AcDbArc
 50
270.0
 51
90.0
  0
LINE
  5
145
100
AcDbEntity
  8
035-DWG
100
AcDbLine
 10
1601.224709
 20
893.469091
 30
0.0
 11
1601.224709
 21
898.469091
 31
0.0
  0
ARC
  5
146
100
AcDbEntity
  8
035-DWG
100
AcDbCircle
 10
1603.024709
 20
898.469091
 30
0.0
 40
1.8
100
AcDbArc
 50
90.0
 51
180.0
  0
LINE
  5
147
100
AcDbEntity
  8
035-DWG
100
AcDbLine
 10
1634.132257
 20
905.579686
 30
0.0
 11
1628.821662
 21
900.269091
 31
0.0
  0
LINE
  5
148
100
AcDbEntity
  8
035-DWG
100
AcDbLine
 10
1628.821662
 20
900.269091
 30
0.0
 11
1636.411605
 21
907.859034
 31
0.0
  0
LINE
  5
149
100
AcDbEntity
  8
035-DWG
100
AcDbLine
 10
1884.574709
 20
1002.926632
 30
0.0
 11
1884.574709
 21
1001.072079
 31
0.0
  0
LINE
  5
14A
100
AcDbEntity
  8
035-DWG
100
AcDbLine
 10
1720.598088
 20
1006.536819
 30
0.0
 11
1723.225548
 21
996.954909
 31
0.0
  0
LINE
  5
14B
100
AcDbEntity
  8
035-DWG
100
AcDbLine
 10
1707.096491
 20
1002.834541
 30
0.0
 11
1709.72395
 21
993.252631
 31
0.0
  0
ELLIPSE
  5
14C
100
AcDbEntity
  8
025-DWG
100
AcDbEllipse
 10
1713.554291
 20
1005.754196
 30
0.0
 11
5.014879060156716
 21
1.375131998028609
 31
0.0
210
0.0
220
0.0
230
-1.0
 40
0.69842
 41
0.0
 42
6.283185307179586
  0
ELLIPSE
  5
14D
100
AcDbEntity
  8
035-DWG
100
AcDbEllipse
 10
1713.847289
 20
1004.68568
 30
0.0
 11
6.750798734826511
 21
1.851139228115479
 31
0.0
210
0.0
220
0.0
230
-0.9999999999999998
 40
0.746466
 41
0.0
 42
6.283185307179586
  0
LINE
  5
14E
100
AcDbEntity
  8
035-DWG
100
AcDbLine
 10
1730.658786
 20
1001.072079
 30
0.0
 11
1897.874709
 21
1001.072079
 31
0.0
  0
LINE
  5
14F
100
AcDbEntity
  8
035-DWG
100
AcDbLine
 10
1897.874709
 20
974.221337
 30
0.0
 11
1736.259599
 21
974.221337
 31
0.0
  0
LINE
  5
150
100
AcDbEntity
  8
035-DWG
  6
CONTINUOUS
 62
     2
100
AcDbLine
 10
1861.644173
 20
928.6
 30
0.0
 11
1801.728813
 21
928.6
 31
0.0
  0
LINE
  5
151
100
AcDbEntity
  8
035-DWG
  6
CONTINUOUS
 62
     2
100
AcDbLine
 10
1892.914599
 20
950.739266
 30
0.0
 11
1794.222416
 21
950.739266
 31
0.0
  0
LINE
  5
152
100
AcDbEntity
  8
035-DWG
  6
CONTINUOUS
 62
     2
100
AcDbLine
 10
1794.949392
 20
952.200001
 30
0.0
 11
1892.644277
 21
952.200001
 31
0.0
  0
LINE
  5
153
100
AcDbEntity
  8
035-DWG
  6
CONTINUOUS
 62
     2
100
AcDbLine
 10
1802.066657
 20
952.417664
 30
0.0
 11
1828.79209
 21
952.417664
 31
0.0
  0
LINE
  5
154
100
AcDbEntity
  8
035-DWG
100
AcDbLine
 10
1719.874709
 20
900.269091
 30
0.0
 11
1719.874709
 21
928.745635
 31
0.0
  0
LINE
  5
155
100
AcDbEntity
  8
035-DWG
100
AcDbLine
 10
1701.874709
 20
900.269091
 30
0.0
 11
1701.874709
 21
928.745635
 31
0.0
  0
ARC
  5
156
100
AcDbEntity
  8
035-DWG
100
AcDbCircle
 10
1737.174709
 20
911.863305
 30
0.0
 40
2.5
100
AcDbArc
 50
150.0
 51
269.0
  0
ARC
  5
157
100
AcDbEntity
  8
035-DWG
100
AcDbCircle
 10
1684.574709
 20
911.863305
 30
0.0
 40
2.5
100
AcDbArc
 50
271.0
 51
30.0
  0
LINE
  5
158
100
AcDbEntity
  8
025-DWG
100
AcDbLine
 10
1800.874709
 20
928.817663
 30
0.0
 11
1800.874709
 21
900.269091
 31
0.0
  0
LINE
  5
159
100
AcDbEntity
  8
035-DWG
100
AcDbLine
 10
1794.874709
 20
928.817663
 30
0.0
 11
1794.874709
 21
900.269091
 31
0.0
  0
LINE
  5
15A
100
AcDbEntity
  8
035-DWG
100
AcDbLine
 10
1785.337813
 20
907.859034
 30
0.0
 11
1737.131078
 21
909.363686
 31
0.0
  0
LINE
  5
15B
100
AcDbEntity
  8
035-DWG
100
AcDbLine
 10
1818.724709
 20
900.269091
 30
0.0
 11
1710.874709
 21
900.269091
 31
0.0
  0
LINE
  5
15C
100
AcDbEntity
  8
035-DWG
100
AcDbLine
 10
1820.524709
 20
893.469091
 30
0.0
 11
1710.874709
 21
893.469091
 31
0.0
  0
LINE
  5
15D
100
AcDbEntity
  8
025-DWG
100
AcDbLine
 10
1820.524709
 20
898.469091
 30
0.0
 11
1710.874709
 21
898.469091
 31
0.0
  0
LINE
  5
15E
100
AcDbEntity
  8
025-DWG
100
AcDbLine
 10
1811.174709
 20
874.970653
 30
0.0
 11
1710.874709
 21
874.970653
 31
0.0
  0
LINE
  5
15F
100
AcDbEntity
  8
025-DWG
100
AcDbLine
 10
1811.174709
 20
879.970653
 30
0.0
 11
1710.874709
 21
879.970653
 31
0.0
  0
LINE
  5
160
100
AcDbEntity
  8
035-DWG
100
AcDbLine
 10
1684.61834
 20
909.363686
 30
0.0
 11
1701.874709
 21
909.363686
 31
0.0
  0
LINE
  5
161
100
AcDbEntity
  8
035-DWG
100
AcDbLine
 10
1737.131078
 20
909.363686
 30
0.0
 11
1719.874709
 21
909.363686
 31
0.0
  0
LINE
  5
162
100
AcDbEntity
  8
035-DWG
100
AcDbLine
 10
1792.927755
 20
900.269091
 30
0.0
 11
1785.337813
 21
907.859034
 31
0.0
  0
LINE
  5
163
100
AcDbEntity
  8
035-DWG
100
AcDbLine
 10
1811.174709
 20
879.970653
 30
0.0
 11
1811.174709
 21
893.469091
 31
0.0
  0
LINE
  5
164
100
AcDbEntity
  8
035-DWG
100
AcDbLine
 10
1820.524709
 20
893.469091
 30
0.0
 11
1820.524709
 21
898.469091
 31
0.0
  0
ARC
  5
165
100
AcDbEntity
  8
035-DWG
100
AcDbCircle
 10
1818.724709
 20
898.469091
 30
0.0
 40
1.8
100
AcDbArc
 50
360.0
 51
90.0
  0
ARC
  5
166
100
AcDbEntity
  8
035-DWG
100
AcDbCircle
 10
1811.174709
 20
877.470653
 30
0.0
 40
2.5
100
AcDbArc
 50
90.0
 51
270.0
  0
LINE
  5
167
100
AcDbEntity
  8
035-DWG
100
AcDbLine
 10
1787.61716
 20
905.579686
 30
0.0
 11
1792.927755
 21
900.269091
 31
0.0
  0
POLYLINE
  5
168
100
AcDbEntity
  8
035-DWG
100
AcDb2dPolyline
 66
     1
 10
0.0
 20
0.0
 30
0.0
 75
     6
  0
VERTEX
  5
169
100
AcDbEntity
  8
035-DWG
100
AcDbVertex
100
AcDb2dVertex
 10
1728.67836
 20
959.007563
 30
0.0
  0
VERTEX
  5
16A
100
AcDbEntity
  8
035-DWG
100
AcDbVertex
100
AcDb2dVertex
 10
1728.096711
 20
956.296636
 30
0.0
  0
VERTEX
  5
16B
100
AcDbEntity
  8
035-DWG
100
AcDbVertex
100
AcDb2dVertex
 10
1726.721137
 20
948.872563
 30
0.0
  0
VERTEX
  5
16C
100
AcDbEntity
  8
035-DWG
100
AcDbVertex
100
AcDb2dVertex
 10
1725.605756
 20
942.072079
 30
0.0
  0
SEQEND
  5
16D
100
AcDbEntity
  8
035-DWG
  0
POLYLINE
  5
16E
100
AcDbEntity
  8
035-DWG
100
AcDb2dPolyline
 66
     1
 10
0.0
 20
0.0
 30
0.0
 75
     6
  0
VERTEX
  5
16F
100
AcDbEntity
  8
035-DWG
100
AcDbVertex
100
AcDb2dVertex
 10
1697.956457
 20
942.072079
 30
0.0
  0
VERTEX
  5
170
100
AcDbEntity
  8
035-DWG
100
AcDbVertex
100
AcDb2dVertex
 10
1699.265915
 20
948.872563
 30
0.0
  0
VERTEX
  5
171
100
AcDbEntity
  8
035-DWG
100
AcDbVertex
100
AcDb2dVertex
 10
1700.831926
 20
956.296636
 30
0.0
  0
VERTEX
  5
172
100
AcDbEntity
  8
035-DWG
100
AcDbVertex
100
AcDb2dVertex
 10
1702.208599
 20
962.118003
 30
0.0
  0
VERTEX
  5
173
100
AcDbEntity
  8
035-DWG
100
AcDbVertex
100
AcDb2dVertex
 10
1703.433799
 20
966.622715
 30
0.0
  0
VERTEX
  5
174
100
AcDbEntity
  8
035-DWG
100
AcDbVertex
100
AcDb2dVertex
 10
1704.545396
 20
970.096828
 30
0.0
  0
VERTEX
  5
175
100
AcDbEntity
  8
035-DWG
100
AcDbVertex
100
AcDb2dVertex
 10
1705.581257
 20
972.826393
 30
0.0
  0
VERTEX
  5
176
100
AcDbEntity
  8
035-DWG
100
AcDbVertex
100
AcDb2dVertex
 10
1706.547754
 20
975.025792
 30
0.0
  0
SEQEND
  5
177
100
AcDbEntity
  8
035-DWG
  0
POLYLINE
  5
178
100
AcDbEntity
  8
025-DWG
100
AcDb2dPolyline
 66
     1
 10
0.0
 20
0.0
 30
0.0
 75
     6
  0
VERTEX
  5
179
100
AcDbEntity
  8
025-DWG
100
AcDbVertex
100
AcDb2dVertex
 10
1706.418828
 20
974.589985
 30
0.0
  0
VERTEX
  5
17A
100
AcDbEntity
  8
025-DWG
100
AcDbVertex
100
AcDb2dVertex
 10
1705.987854
 20
973.133177
 30
0.0
  0
VERTEX
  5
17B
100
AcDbEntity
  8
025-DWG
100
AcDbVertex
100
AcDb2dVertex
 10
1705.135585
 20
970.030876
 30
0.0
  0
VERTEX
  5
17C
100
AcDbEntity
  8
025-DWG
100
AcDbVertex
100
AcDb2dVertex
 10
1704.241935
 20
966.4629
 30
0.0
  0
VERTEX
  5
17D
100
AcDbEntity
  8
025-DWG
100
AcDbVertex
100
AcDb2dVertex
 10
1703.308043
 20
962.300611
 30
0.0
  0
VERTEX
  5
17E
100
AcDbEntity
  8
025-DWG
100
AcDbVertex
100
AcDb2dVertex
 10
1702.335046
 20
957.415368
 30
0.0
  0
VERTEX
  5
17F
100
AcDbEntity
  8
025-DWG
100
AcDbVertex
100
AcDb2dVertex
 10
1701.324083
 20
951.678533
 30
0.0
  0
VERTEX
  5
180
100
AcDbEntity
  8
025-DWG
100
AcDbVertex
100
AcDb2dVertex
 10
1700.276294
 20
944.961466
 30
0.0
  0
VERTEX
  5
181
100
AcDbEntity
  8
025-DWG
100
AcDbVertex
100
AcDb2dVertex
 10
1699.876266
 20
942.072079
 30
0.0
  0
SEQEND
  5
182
100
AcDbEntity
  8
025-DWG
  0
POLYLINE
  5
183
100
AcDbEntity
  8
025-DWG
100
AcDb2dPolyline
 66
     1
 10
0.0
 20
0.0
 30
0.0
 75
     6
  0
VERTEX
  5
184
100
AcDbEntity
  8
025-DWG
100
AcDbVertex
100
AcDb2dVertex
 10
1708.109475
 20
942.072079
 30
0.0
  0
VERTEX
  5
185
100
AcDbEntity
  8
025-DWG
100
AcDbVertex
100
AcDb2dVertex
 10
1708.753026
 20
945.662772
 30
0.0
  0
VERTEX
  5
186
100
AcDbEntity
  8
025-DWG
100
AcDbVertex
100
AcDb2dVertex
 10
1711.368697
 20
959.423232
 30
0.0
  0
VERTEX
  5
187
100
AcDbEntity
  8
025-DWG
100
AcDbVertex
100
AcDb2dVertex
 10
1713.524025
 20
969.882196
 30
0.0
  0
VERTEX
  5
188
100
AcDbEntity
  8
025-DWG
100
AcDbVertex
100
AcDb2dVertex
 10
1715.295732
 20
977.5684
 30
0.0
  0
VERTEX
  5
189
100
AcDbEntity
  8
025-DWG
100
AcDbVertex
100
AcDb2dVertex
 10
1716.760545
 20
983.010581
 30
0.0
  0
VERTEX
  5
18A
100
AcDbEntity
  8
025-DWG
100
AcDbVertex
100
AcDb2dVertex
 10
1717.241822
 20
984.463368
 30
0.0
  0
SEQEND
  5
18B
100
AcDbEntity
  8
025-DWG
  0
LINE
  5
18C
100
AcDbEntity
  8
035-DWG
100
AcDbLine
 10
1725.605756
 20
942.072079
 30
0.0
 11
1697.956457
 21
942.072079
 31
0.0
  0
LINE
  5
18D
100
AcDbEntity
  8
035-DWG
100
AcDbLine
 10
1703.228957
 20
931.745635
 30
0.0
 11
1718.52046
 21
931.745635
 31
0.0
  0
LINE
  5
18E
100
AcDbEntity
  8
035-DWG
100
AcDbLine
 10
1705.874709
 20
932.745635
 30
0.0
 11
1715.874709
 21
932.745635
 31
0.0
  0
ARC
  5
18F
100
AcDbEntity
  8
035-DWG
100
AcDbCircle
 10
1705.874709
 20
928.745635
 30
0.0
 40
4.0
100
AcDbArc
 50
90.0
 51
180.0
  0
LINE
  5
190
100
AcDbEntity
  8
025-DWG
100
AcDbLine
 10
1686.739772
 20
913.113305
 30
0.0
 11
1701.874709
 21
913.113305
 31
0.0
  0
LINE
  5
191
100
AcDbEntity
  8
035-DWG
100
AcDbLine
 10
1684.286034
 20
917.363305
 30
0.0
 11
1701.874709
 21
917.363305
 31
0.0
  0
LINE
  5
192
100
AcDbEntity
  8
035-DWG
100
AcDbLine
 10
1686.739772
 20
913.113305
 30
0.0
 11
1684.286034
 21
917.363305
 31
0.0
  0
ARC
  5
193
100
AcDbEntity
  8
035-DWG
100
AcDbCircle
 10
1715.874709
 20
928.745635
 30
0.0
 40
4.0
100
AcDbArc
 50
0.0
 51
90.0
  0
LINE
  5
194
100
AcDbEntity
  8
035-DWG
100
AcDbLine
 10
1735.009645
 20
913.113305
 30
0.0
 11
1737.463384
 21
917.363305
 31
0.0
  0
LINE
  5
195
100
AcDbEntity
  8
035-DWG
100
AcDbLine
 10
1737.463384
 20
917.363305
 30
0.0
 11
1719.874709
 21
917.363305
 31
0.0
  0
LINE
  5
196
100
AcDbEntity
  8
025-DWG
100
AcDbLine
 10
1735.009645
 20
913.113305
 30
0.0
 11
1719.874709
 21
913.113305
 31
0.0
  0
POLYLINE
  5
197
100
AcDbEntity
  8
025-DWG
100
AcDb2dPolyline
 66
     1
 10
0.0
 20
0.0
 30
0.0
  0
VERTEX
  5
198
100
AcDbEntity
  8
025-DWG
100
AcDbVertex
100
AcDb2dVertex
 10
1703.508515
 20
963.194102
 30
0.0
 42
-0.08526
  0
VERTEX
  5
199
100
AcDbEntity
  8
025-DWG
100
AcDbVertex
100
AcDb2dVertex
 10
1707.267645
 20
966.887137
 30
0.0
 42
-0.017765
  0
VERTEX
  5
19A
100
AcDbEntity
  8
025-DWG
100
AcDbVertex
100
AcDb2dVertex
 10
1708.197968
 20
967.484617
 30
0.0
 42
-0.152777
  0
SEQEND
  5
19B
100
AcDbEntity
  8
025-DWG
  0
POLYLINE
  5
19C
100
AcDbEntity
  8
035-DWG
100
AcDb2dPolyline
 66
     1
 10
0.0
 20
0.0
 30
0.0
 75
     6
  0
VERTEX
  5
19D
100
AcDbEntity
  8
035-DWG
100
AcDbVertex
100
AcDb2dVertex
 10
1712.749886
 20
988.962856
 30
0.0
  0
VERTEX
  5
19E
100
AcDbEntity
  8
035-DWG
100
AcDbVertex
100
AcDb2dVertex
 10
1712.249423
 20
988.221511
 30
0.0
  0
VERTEX
  5
19F
100
AcDbEntity
  8
035-DWG
100
AcDbVertex
100
AcDb2dVertex
 10
1711.144797
 20
986.404181
 30
0.0
  0
VERTEX
  5
1A0
100
AcDbEntity
  8
035-DWG
100
AcDbVertex
100
AcDb2dVertex
 10
1710.153502
 20
984.560413
 30
0.0
  0
VERTEX
  5
1A1
100
AcDbEntity
  8
035-DWG
100
AcDbVertex
100
AcDb2dVertex
 10
1709.249561
 20
982.63844
 30
0.0
  0
VERTEX
  5
1A2
100
AcDbEntity
  8
035-DWG
100
AcDbVertex
100
AcDb2dVertex
 10
1708.407001
 20
980.586495
 30
0.0
  0
VERTEX
  5
1A3
100
AcDbEntity
  8
035-DWG
100
AcDbVertex
100
AcDb2dVertex
 10
1707.599847
 20
978.352814
 30
0.0
  0
VERTEX
  5
1A4
100
AcDbEntity
  8
035-DWG
100
AcDbVertex
100
AcDb2dVertex
 10
1706.802123
 20
975.88563
 30
0.0
  0
VERTEX
  5
1A5
100
AcDbEntity
  8
035-DWG
100
AcDbVertex
100
AcDb2dVertex
 10
1706.547754
 20
975.025792
 30
0.0
  0
SEQEND
  5
1A6
100
AcDbEntity
  8
035-DWG
  0
POLYLINE
  5
1A7
100
AcDbEntity
  8
035-DWG
100
AcDb2dPolyline
 66
     1
 10
0.0
 20
0.0
 30
0.0
 75
     6
  0
VERTEX
  5
1A8
100
AcDbEntity
  8
035-DWG
100
AcDbVertex
100
AcDb2dVertex
 10
1739.056072
 20
976.109255
 30
0.0
  0
VERTEX
  5
1A9
100
AcDbEntity
  8
035-DWG
100
AcDbVertex
100
AcDb2dVertex
 10
1737.852796
 20
975.52747
 30
0.0
  0
VERTEX
  5
1AA
100
AcDbEntity
  8
035-DWG
100
AcDbVertex
100
AcDb2dVertex
 10
1736.702105
 20
974.671497
 30
0.0
  0
VERTEX
  5
1AB
100
AcDbEntity
  8
035-DWG
100
AcDbVertex
100
AcDb2dVertex
 10
1735.596488
 20
973.546755
 30
0.0
  0
VERTEX
  5
1AC
100
AcDbEntity
  8
035-DWG
100
AcDbVertex
100
AcDb2dVertex
 10
1734.528432
 20
972.15866
 30
0.0
  0
VERTEX
  5
1AD
100
AcDbEntity
  8
035-DWG
100
AcDbVertex
100
AcDb2dVertex
 10
1733.490424
 20
970.512631
 30
0.0
  0
VERTEX
  5
1AE
100
AcDbEntity
  8
035-DWG
100
AcDbVertex
100
AcDb2dVertex
 10
1732.474954
 20
968.614083
 30
0.0
  0
VERTEX
  5
1AF
100
AcDbEntity
  8
035-DWG
100
AcDbVertex
100
AcDb2dVertex
 10
1731.474508
 20
966.468436
 30
0.0
  0
VERTEX
  5
1B0
100
AcDbEntity
  8
035-DWG
100
AcDbVertex
100
AcDb2dVertex
 10
1730.481574
 20
964.081106
 30
0.0
  0
VERTEX
  5
1B1
100
AcDbEntity
  8
035-DWG
100
AcDbVertex
100
AcDb2dVertex
 10
1729.489774
 20
961.440207
 30
0.0
  0
VERTEX
  5
1B2
100
AcDbEntity
  8
035-DWG
100
AcDbVertex
100
AcDb2dVertex
 10
1728.67836
 20
959.007563
 30
0.0
  0
SEQEND
  5
1B3
100
AcDbEntity
  8
035-DWG
  0
POLYLINE
  5
1B4
100
AcDbEntity
  8
025-DWG
100
AcDb2dPolyline
 66
     1
 10
0.0
 20
0.0
 30
0.0
  0
VERTEX
  5
1B5
100
AcDbEntity
  8
025-DWG
100
AcDbVertex
100
AcDb2dVertex
 10
1711.078451
 20
968.816954
 30
0.0
 42
-0.048599
  0
VERTEX
  5
1B6
100
AcDbEntity
  8
025-DWG
100
AcDbVertex
100
AcDb2dVertex
 10
1714.014663
 20
969.51678
 30
0.0
 42
-0.147906
  0
VERTEX
  5
1B7
100
AcDbEntity
  8
025-DWG
100
AcDbVertex
100
AcDb2dVertex
 10
1722.915013
 20
968.109419
 30
0.0
 42
-0.028593
  0
SEQEND
  5
1B8
100
AcDbEntity
  8
025-DWG
  0
POLYLINE
  5
1B9
100
AcDbEntity
  8
025-DWG
100
AcDb2dPolyline
 66
     1
 10
0.0
 20
0.0
 30
0.0
  0
VERTEX
  5
1BA
100
AcDbEntity
  8
025-DWG
100
AcDbVertex
100
AcDb2dVertex
 10
1726.077066
 20
966.075568
 30
0.0
 42
-0.089616
  0
VERTEX
  5
1BB
100
AcDbEntity
  8
025-DWG
100
AcDbVertex
100
AcDb2dVertex
 10
1729.639994
 20
961.840203
 30
0.0
  0
SEQEND
  5
1BC
100
AcDbEntity
  8
025-DWG
  0
POLYLINE
  5
1BD
100
AcDbEntity
  8
025-DWG
100
AcDb2dPolyline
 66
     1
 10
0.0
 20
0.0
 30
0.0
 75
     6
  0
VERTEX
  5
1BE
100
AcDbEntity
  8
025-DWG
100
AcDbVertex
100
AcDb2dVertex
 10
1744.160383
 20
987.072079
 30
0.0
  0
VERTEX
  5
1BF
100
AcDbEntity
  8
025-DWG
100
AcDbVertex
100
AcDb2dVertex
 10
1742.295815
 20
986.097732
 30
0.0
  0
VERTEX
  5
1C0
100
AcDbEntity
  8
025-DWG
100
AcDbVertex
100
AcDb2dVertex
 10
1740.648177
 20
984.983369
 30
0.0
  0
VERTEX
  5
1C1
100
AcDbEntity
  8
025-DWG
100
AcDbVertex
100
AcDb2dVertex
 10
1739.18648
 20
983.724358
 30
0.0
  0
VERTEX
  5
1C2
100
AcDbEntity
  8
025-DWG
100
AcDbVertex
100
AcDb2dVertex
 10
1737.879733
 20
982.316067
 30
0.0
  0
VERTEX
  5
1C3
100
AcDbEntity
  8
025-DWG
100
AcDbVertex
100
AcDb2dVertex
 10
1736.696945
 20
980.753864
 30
0.0
  0
VERTEX
  5
1C4
100
AcDbEntity
  8
025-DWG
100
AcDbVertex
100
AcDb2dVertex
 10
1735.607129
 20
979.033118
 30
0.0
  0
VERTEX
  5
1C5
100
AcDbEntity
  8
025-DWG
100
AcDbVertex
100
AcDb2dVertex
 10
1734.579292
 20
977.149196
 30
0.0
  0
VERTEX
  5
1C6
100
AcDbEntity
  8
025-DWG
100
AcDbVertex
100
AcDb2dVertex
 10
1733.582445
 20
975.097466
 30
0.0
  0
VERTEX
  5
1C7
100
AcDbEntity
  8
025-DWG
100
AcDbVertex
100
AcDb2dVertex
 10
1732.586545
 20
972.826393
 30
0.0
  0
VERTEX
  5
1C8
100
AcDbEntity
  8
025-DWG
100
AcDbVertex
100
AcDb2dVertex
 10
1731.565333
 20
970.096828
 30
0.0
  0
VERTEX
  5
1C9
100
AcDbEntity
  8
025-DWG
100
AcDbVertex
100
AcDb2dVertex
 10
1730.493498
 20
966.622715
 30
0.0
  0
VERTEX
  5
1CA
100
AcDbEntity
  8
025-DWG
100
AcDbVertex
100
AcDb2dVertex
 10
1729.384407
 20
962.269807
 30
0.0
  0
SEQEND
  5
1CB
100
AcDbEntity
  8
025-DWG
  0
ELLIPSE
  5
1CC
100
AcDbEntity
  8
025-DWG
100
AcDbEllipse
 10
1730.658786
 20
987.072079
 30
0.0
 11
0.0
 21
14.0
 31
0.0
210
0.0
220
0.0
230
1.0
 40
0.9644
 41
3.812820059209157
 42
6.283185307179586
  0
POLYLINE
  5
1CD
100
AcDbEntity
  8
035-DWG
100
AcDb2dPolyline
 66
     1
 10
0.0
 20
0.0
 30
0.0
 75
     6
  0
VERTEX
  5
1CE
100
AcDbEntity
  8
035-DWG
100
AcDbVertex
100
AcDb2dVertex
 10
1730.658786
 20
1001.072079
 30
0.0
  0
VERTEX
  5
1CF
100
AcDbEntity
  8
035-DWG
100
AcDbVertex
100
AcDb2dVertex
 10
1727.668327
 20
1000.746904
 30
0.0
  0
VERTEX
  5
1D0
100
AcDbEntity
  8
035-DWG
100
AcDbVertex
100
AcDb2dVertex
 10
1724.949668
 20
999.970566
 30
0.0
  0
VERTEX
  5
1D1
100
AcDbEntity
  8
035-DWG
100
AcDbVertex
100
AcDb2dVertex
 10
1723.492044
 20
999.288525
 30
0.0
  0
SEQEND
  5
1D2
100
AcDbEntity
  8
035-DWG
  0
POLYLINE
  5
1D3
100
AcDbEntity
  8
025-DWG
100
AcDb2dPolyline
 66
     1
 10
0.0
 20
0.0
 30
0.0
 75
     6
  0
VERTEX
  5
1D4
100
AcDbEntity
  8
025-DWG
100
AcDbVertex
100
AcDb2dVertex
 10
1724.16493
 20
996.839614
 30
0.0
  0
VERTEX
  5
1D5
100
AcDbEntity
  8
025-DWG
100
AcDbVertex
100
AcDb2dVertex
 10
1724.378135
 20
997.072648
 30
0.0
  0
VERTEX
  5
1D6
100
AcDbEntity
  8
025-DWG
100
AcDbVertex
100
AcDb2dVertex
 10
1725.684882
 20
998.245886
 30
0.0
  0
VERTEX
  5
1D7
100
AcDbEntity
  8
025-DWG
100
AcDbVertex
100
AcDb2dVertex
 10
1727.14658
 20
999.30195
 30
0.0
  0
VERTEX
  5
1D8
100
AcDbEntity
  8
025-DWG
100
AcDbVertex
100
AcDb2dVertex
 10
1728.794218
 20
1000.243221
 30
0.0
  0
VERTEX
  5
1D9
100
AcDbEntity
  8
025-DWG
100
AcDbVertex
100
AcDb2dVertex
 10
1730.658786
 20
1001.072079
 30
0.0
  0
SEQEND
  5
1DA
100
AcDbEntity
  8
025-DWG
  0
LINE
  5
1DB
100
AcDbEntity
  8
035-DWG
100
AcDbLine
 10
1723.705941
 20
989.902393
 30
0.0
 11
1723.406496
 21
995.822709
 31
0.0
  0
LINE
  5
1DC
100
AcDbEntity
  8
025-DWG
100
AcDbLine
 10
1715.229101
 20
999.64644
 30
0.0
 11
1714.514711
 21
1002.251704
 31
0.0
  0
LINE
  5
1DD
100
AcDbEntity
  8
035-DWG
100
AcDbLine
 10
1712.908012
 20
986.941488
 30
0.0
 11
1710.14581
 21
992.18649
 31
0.0
  0
ELLIPSE
  5
1DE
100
AcDbEntity
  8
035-DWG
100
AcDbEllipse
 10
1716.474749
 20
995.10377
 30
0.0
 11
-6.817984699778517
 21
-1.600428819368233
 31
0.0
210
0.0
220
0.0
230
-1.0
 40
0.769745
 41
3.093449138341274
 42
6.235041791931067
  0
ELLIPSE
  5
1DF
100
AcDbEntity
  8
035-DWG
100
AcDbEllipse
 10
1718.06144
 20
989.317371
 30
0.0
 11
-5.497078969787192
 21
-1.507356228608268
 31
0.0
210
0.0
220
0.0
230
-0.9999999999999998
 40
0.866025
 41
3.329951065013537
 42
6.094826895755799
  0
LINE
  5
1E0
100
AcDbEntity
  8
035-DWG
  6
CONTINUOUS
 62
     2
100
AcDbLine
 10
1793.648379
 20
928.817663
 30
0.0
 11
1799.559414
 21
928.817663
 31
0.0
  0
LINE
  5
1E1
100
AcDbEntity
  8
035-DWG
  6
CONTINUOUS
 62
     2
100
AcDbLine
 10
1801.728813
 20
928.817663
 30
0.0
 11
1799.559414
 21
928.817663
 31
0.0
  0
LINE
  5
1E2
100
AcDbEntity
  8
035-DWG
  6
CONTINUOUS
 62
     2
100
AcDbLine
 10
1802.066657
 20
950.956929
 30
0.0
 11
1802.066657
 21
952.417664
 31
0.0
  0
POLYLINE
  5
1E3
100
AcDbEntity
  8
035-DWG
  6
CONTINUOUS
 62
     2
100
AcDb2dPolyline
 66
     1
 10
0.0
 20
0.0
 30
0.0
 70
   128
  0
VERTEX
  5
1E4
100
AcDbEntity
  8
035-DWG
 62
     2
100
AcDbVertex
100
AcDb2dVertex
 10
1799.88735
 20
950.956929
 30
0.0
  0
VERTEX
  5
1E5
100
AcDbEntity
  8
035-DWG
 62
     2
100
AcDbVertex
100
AcDb2dVertex
 10
1799.918216
 20
951.24392
 30
0.0
  0
VERTEX
  5
1E6
100
AcDbEntity
  8
035-DWG
 62
     2
100
AcDbVertex
100
AcDb2dVertex
 10
1799.99653
 20
951.518787
 30
0.0
  0
VERTEX
  5
1E7
100
AcDbEntity
  8
035-DWG
 62
     2
100
AcDbVertex
100
AcDb2dVertex
 10
1800.11938
 20
951.771313
 30
0.0
  0
VERTEX
  5
1E8
100
AcDbEntity
  8
035-DWG
 62
     2
100
AcDbVertex
100
AcDb2dVertex
 10
1800.282201
 20
951.992117
 30
0.0
  0
VERTEX
  5
1E9
100
AcDbEntity
  8
035-DWG
 62
     2
100
AcDbVertex
100
AcDb2dVertex
 10
1800.478942
 20
952.172989
 30
0.0
  0
VERTEX
  5
1EA
100
AcDbEntity
  8
035-DWG
 62
     2
100
AcDbVertex
100
AcDb2dVertex
 10
1800.702291
 20
952.307209
 30
0.0
  0
VERTEX
  5
1EB
100
AcDbEntity
  8
035-DWG
 62
     2
100
AcDbVertex
100
AcDb2dVertex
 10
1800.943949
 20
952.389791
 30
0.0
  0
VERTEX
  5
1EC
100
AcDbEntity
  8
035-DWG
 62
     2
100
AcDbVertex
100
AcDb2dVertex
 10
1801.194934
 20
952.417664
 30
0.0
  0
SEQEND
  5
1ED
100
AcDbEntity
  8
035-DWG
 62
     2
  0
LINE
  5
1EE
100
AcDbEntity
  8
035-DWG
  6
CONTINUOUS
 62
     2
100
AcDbLine
 10
1795.727602
 20
952.417664
 30
0.0
 11
1801.194934
 21
952.417664
 31
0.0
  0
ARC
  5
1EF
100
AcDbEntity
  8
035-DWG
  6
CONTINUOUS
 62
     2
100
AcDbCircle
 10
1795.727602
 20
950.917663
 30
0.0
 40
1.5
100
AcDbArc
 50
90.0
 51
178.5
  0
LINE
  5
1F0
100
AcDbEntity
  8
035-DWG
  6
CONTINUOUS
 62
     2
100
AcDbLine
 10
1801.194934
 20
952.417664
 30
0.0
 11
1802.066657
 21
952.417664
 31
0.0
  0
LINE
  5
1F1
100
AcDbEntity
  8
025-DWG
  6
CONTINUOUS
 62
     7
100
AcDbLine
 10
1802.066657
 20
950.956929
 30
0.0
 11
1801.728813
 21
928.817663
 31
0.0
  0
POLYLINE
  5
1F2
100
AcDbEntity
  8
025-DWG
  6
CONTINUOUS
 62
     7
100
AcDb2dPolyline
 66
     1
 10
0.0
 20
0.0
 30
0.0
 70
   128
  0
VERTEX
  5
1F3
100
AcDbEntity
  8
025-DWG
 62
     7
100
AcDbVertex
100
AcDb2dVertex
 10
1799.559414
 20
928.817663
 30
0.0
  0
VERTEX
  5
1F4
100
AcDbEntity
  8
025-DWG
 62
     7
100
AcDbVertex
100
AcDb2dVertex
 10
1799.633176
 20
933.815302
 30
0.0
  0
VERTEX
  5
1F5
100
AcDbEntity
  8
025-DWG
 62
     7
100
AcDbVertex
100
AcDb2dVertex
 10
1799.88735
 20
950.956929
 30
0.0
  0
SEQEND
  5
1F6
100
AcDbEntity
  8
025-DWG
 62
     7
  0
LINE
  5
1F7
100
AcDbEntity
  8
035-DWG
  6
CONTINUOUS
 62
     2
100
AcDbLine
 10
1794.228116
 20
950.956929
 30
0.0
 11
1793.648379
 21
928.817663
 31
0.0
  0
ARC
  5
1F8
100
AcDbEntity
  8
035-DWG
100
AcDbCircle
 10
1897.874709
 20
987.646708
 30
0.0
 40
13.425371
100
AcDbArc
 50
270.0
 51
90.0
  0
LINE
  5
1F9
100
AcDbEntity
  8
035-DWG
  6
CONTINUOUS
 62
     2
100
AcDbLine
 10
1887.743202
 20
964.400001
 30
0.0
 11
1970.652199
 21
964.400001
 31
0.0
  0
LINE
  5
1FA
100
AcDbEntity
  8
035-DWG
100
AcDbLine
 10
1850.474709
 20
956.200001
 30
0.0
 11
1850.474709
 21
955.200001
 31
0.0
  0
ARC
  5
1FB
100
AcDbEntity
  8
035-DWG
100
AcDbCircle
 10
1922.11698
 20
823.597226
 30
0.0
 40
144.937842
100
AcDbArc
 50
103.719112
 51
117.464588
  0
LINE
  5
1FC
100
AcDbEntity
  8
035-DWG
  6
CONTINUOUS
 62
     2
100
AcDbLine
 10
1895.874709
 20
928.6
 30
0.0
 11
1861.644173
 21
928.6
 31
0.0
  0
LINE
  5
1FD
100
AcDbEntity
  8
035-DWG
  6
CONTINUOUS
 62
     2
100
AcDbLine
 10
1828.79209
 20
952.417664
 30
0.0
 11
1892.690191
 21
952.417664
 31
0.0
  0
LINE
  5
1FE
100
AcDbEntity
  8
035-DWG
100
AcDbLine
 10
1849.874709
 20
955.200001
 30
0.0
 11
1849.874709
 21
953.200001
 31
0.0
  0
ARC
  5
1FF
100
AcDbEntity
  8
035-DWG
100
AcDbCircle
 10
1848.874709
 20
953.200001
 30
0.0
 40
1.0
100
AcDbArc
 50
308.524962
 51
0.0
  0
LINE
  5
200
100
AcDbEntity
  8
025-DWG
100
AcDbLine
 10
1849.874709
 20
953.200001
 30
0.0
 11
1857.231706
 21
953.200001
 31
0.0
  0
LINE
  5
201
100
AcDbEntity
  8
035-DWG
100
AcDbLine
 10
1849.874709
 20
955.200001
 30
0.0
 11
1861.390645
 21
955.200001
 31
0.0
  0
ARC
  5
202
100
AcDbEntity
  8
035-DWG
100
AcDbCircle
 10
1860.874709
 20
929.950001
 30
0.0
 40
31.25
100
AcDbArc
 50
70.696107
 51
109.303893
  0
LINE
  5
203
100
AcDbEntity
  8
025-DWG
100
AcDbLine
 10
1849.874709
 20
958.4993
 30
0.0
 11
1869.122561
 21
958.4993
 31
0.0
  0
ARC
  5
204
100
AcDbEntity
  8
035-DWG
100
AcDbCircle
 10
1850.874709
 20
958.4993
 30
0.0
 40
1.0
100
AcDbArc
 50
109.303893
 51
180.0
  0
LINE
  5
205
100
AcDbEntity
  8
035-DWG
100
AcDbLine
 10
1849.874709
 20
958.4993
 30
0.0
 11
1849.874709
 21
956.200001
 31
0.0
  0
LINE
  5
206
100
AcDbEntity
  8
035-DWG
100
AcDbLine
 10
1849.874709
 20
956.200001
 30
0.0
 11
1863.60645
 21
956.200001
 31
0.0
  0
LINE
  5
207
100
AcDbEntity
  8
035-DWG
100
AcDbLine
 10
1884.574709
 20
974.221337
 30
0.0
 11
1884.574709
 21
964.926632
 31
0.0
  0
LINE
  5
208
100
AcDbEntity
  8
035-DWG
100
AcDbLine
 10
1884.574709
 20
964.926632
 30
0.0
 11
1895.291654
 21
964.926632
 31
0.0
  0
LINE
  5
209
100
AcDbEntity
  8
035-DWG
100
AcDbLine
 10
1923.290691
 20
964.400001
 30
0.0
 11
1969.806216
 21
964.400001
 31
0.0
  0
ARC
  5
20A
100
AcDbEntity
  8
035-DWG
  6
CONTINUOUS
 62
     2
100
AcDbCircle
 10
1972.367628
 20
965.385771
 30
0.0
 40
1.0
100
AcDbArc
 50
207.331587
 51
260.323252
  0
ARC
  5
20B
100
AcDbEntity
  8
035-DWG
  6
CONTINUOUS
 62
     2
100
AcDbCircle
 10
1970.820288
 20
965.385771
 30
0.0
 40
1.0
100
AcDbArc
 50
207.331587
 51
260.323252
  0
POLYLINE
  5
20C
100
AcDbEntity
  8
025-DWG
100
AcDb2dPolyline
 66
     1
 10
0.0
 20
0.0
 30
0.0
 70
     4
 75
     6
  0
VERTEX
  5
20D
100
AcDbEntity
  8
025-DWG
100
AcDbVertex
100
AcDb2dVertex
 10
1720.598088
 20
1006.536819
 30
0.0
 70
    16
  0
VERTEX
  5
20E
100
AcDbEntity
  8
025-DWG
100
AcDbVertex
100
AcDb2dVertex
 10
1720.598088
 20
1006.536819
 30
0.0
 70
     8
  0
VERTEX
  5
20F
100
AcDbEntity
  8
025-DWG
100
AcDbVertex
100
AcDb2dVertex
 10
1720.384627
 20
1006.702313
 30
0.0
 70
     8
  0
VERTEX
  5
210
100
AcDbEntity
  8
025-DWG
100
AcDbVertex
100
AcDb2dVertex
 10
1720.207246
 20
1006.827796
 30
0.0
 70
     8
  0
VERTEX
  5
211
100
AcDbEntity
  8
025-DWG
100
AcDbVertex
100
AcDb2dVertex
 10
1720.042169
 20
1006.920213
 30
0.0
 70
     8
  0
VERTEX
  5
212
100
AcDbEntity
  8
025-DWG
100
AcDbVertex
100
AcDb2dVertex
 10
1719.865619
 20
1006.986508
 30
0.0
 70
     8
  0
VERTEX
  5
213
100
AcDbEntity
  8
025-DWG
100
AcDbVertex
100
AcDb2dVertex
 10
1719.653821
 20
1007.033623
 30
0.0
 70
     8
  0
VERTEX
  5
214
100
AcDbEntity
  8
025-DWG
100
AcDbVertex
100
AcDb2dVertex
 10
1719.382998
 20
1007.068503
 30
0.0
 70
     8
  0
VERTEX
  5
215
100
AcDbEntity
  8
025-DWG
100
AcDbVertex
100
AcDb2dVertex
 10
1719.029373
 20
1007.09809
 30
0.0
 70
     8
  0
VERTEX
  5
216
100
AcDbEntity
  8
025-DWG
100
AcDbVertex
100
AcDb2dVertex
 10
1718.56917
 20
1007.129328
 30
0.0
 70
     8
  0
VERTEX
  5
217
100
AcDbEntity
  8
025-DWG
100
AcDbVertex
100
AcDb2dVertex
 10
1719.959616
 20
1007.037653
 30
0.0
 70
    16
  0
VERTEX
  5
218
100
AcDbEntity
  8
025-DWG
100
AcDbVertex
100
AcDb2dVertex
 10
1718.56917
 20
1007.129328
 30
0.0
 70
    16
  0
SEQEND
  5
219
100
AcDbEntity
  8
025-DWG
  0
POLYLINE
  5
21A
100
AcDbEntity
  8
025-DWG
100
AcDb2dPolyline
 66
     1
 10
0.0
 20
0.0
 30
0.0
 70
     4
 75
     6
  0
VERTEX
  5
21B
100
AcDbEntity
  8
025-DWG
100
AcDbVertex
100
AcDb2dVertex
 10
1707.096491
 20
1002.834541
 30
0.0
 70
    16
  0
VERTEX
  5
21C
100
AcDbEntity
  8
025-DWG
100
AcDbVertex
100
AcDb2dVertex
 10
1707.096491
 20
1002.834541
 30
0.0
 70
     8
  0
VERTEX
  5
21D
100
AcDbEntity
  8
025-DWG
100
AcDbVertex
100
AcDb2dVertex
 10
1707.195683
 20
1003.085767
 30
0.0
 70
     8
  0
VERTEX
  5
21E
100
AcDbEntity
  8
025-DWG
100
AcDbVertex
100
AcDb2dVertex
 10
1707.28425
 20
1003.284176
 30
0.0
 70
     8
  0
VERTEX
  5
21F
100
AcDbEntity
  8
025-DWG
100
AcDbVertex
100
AcDb2dVertex
 10
1707.379099
 20
1003.447868
 30
0.0
 70
     8
  0
VERTEX
  5
220
100
AcDbEntity
  8
025-DWG
100
AcDbVertex
100
AcDb2dVertex
 10
1707.49714
 20
1003.594942
 30
0.0
 70
     8
  0
VERTEX
  5
221
100
AcDbEntity
  8
025-DWG
100
AcDbVertex
100
AcDb2dVertex
 10
1707.655283
 20
1003.743499
 30
0.0
 70
     8
  0
VERTEX
  5
222
100
AcDbEntity
  8
025-DWG
100
AcDbVertex
100
AcDb2dVertex
 10
1707.870437
 20
1003.911639
 30
0.0
 70
     8
  0
VERTEX
  5
223
100
AcDbEntity
  8
025-DWG
100
AcDbVertex
100
AcDb2dVertex
 10
1708.15951
 20
1004.11746
 30
0.0
 70
     8
  0
VERTEX
  5
224
100
AcDbEntity
  8
025-DWG
100
AcDbVertex
100
AcDb2dVertex
 10
1708.539412
 20
1004.379064
 30
0.0
 70
     8
  0
VERTEX
  5
225
100
AcDbEntity
  8
025-DWG
100
AcDbVertex
100
AcDb2dVertex
 10
1707.390203
 20
1003.590989
 30
0.0
 70
    16
  0
VERTEX
  5
226
100
AcDbEntity
  8
025-DWG
100
AcDbVertex
100
AcDb2dVertex
 10
1708.539412
 20
1004.379064
 30
0.0
 70
    16
  0
SEQEND
  5
227
100
AcDbEntity
  8
025-DWG
  0
LINE
  5
228
100
AcDbEntity
  8
025-DWG
100
AcDbLine
 10
1712.593871
 20
1009.256688
 30
0.0
 11
1712.465477
 21
1009.72492
 31
0.0
  0
LINE
  5
229
100
AcDbEntity
  8
025-DWG
100
AcDbLine
 10
1890.511227
 20
1049.471456
 30
0.0
 11
1914.162476
 21
1049.471456
 31
0.0
  0
LINE
  5
22A
100
AcDbEntity
  8
025-DWG
100
AcDbLine
 10
1887.87527
 20
1047.274522
 30
0.0
 11
1915.492762
 21
1047.274522
 31
0.0
  0
LINE
  5
22B
100
AcDbEntity
  8
035-DWG
100
AcDbLine
 10
1891.330549
 20
1052.577581
 30
0.0
 11
1913.557686
 21
1056.926632
 31
0.0
  0
ARC
  5
22C
100
AcDbEntity
  8
035-DWG
100
AcDbCircle
 10
1892.674709
 20
1045.707848
 30
0.0
 40
7.0
100
AcDbArc
 50
101.070855
 51
180.0
  0
LINE
  5
22D
100
AcDbEntity
  8
025-DWG
100
AcDbLine
 10
1884.574709
 20
1002.926632
 30
0.0
 11
1900.436422
 21
1002.926632
 31
0.0
  0
LINE
  5
22E
100
AcDbEntity
  8
035-DWG
100
AcDbLine
 10
1885.074709
 20
1005.926632
 30
0.0
 11
1901.039703
 21
1005.926632
 31
0.0
  0
LINE
  5
22F
100
AcDbEntity
  8
035-DWG
100
AcDbLine
 10
1885.074709
 20
1005.926632
 30
0.0
 11
1884.574709
 21
1002.926632
 31
0.0
  0
LINE
  5
230
100
AcDbEntity
  8
035-DWG
100
AcDbLine
 10
1885.674709
 20
1005.926632
 30
0.0
 11
1885.674709
 21
1045.707848
 31
0.0
  0
LINE
  5
231
100
AcDbEntity
  8
025-DWG
100
AcDbLine
 10
1954.256656
 20
1047.274522
 30
0.0
 11
1934.874709
 21
1047.274522
 31
0.0
  0
LINE
  5
232
100
AcDbEntity
  8
025-DWG
100
AcDbLine
 10
1915.492762
 20
1047.274522
 30
0.0
 11
1934.874709
 21
1047.274522
 31
0.0
  0
LINE
  5
233
100
AcDbEntity
  8
035-DWG
100
AcDbLine
 10
1955.513339
 20
1056.926632
 30
0.0
 11
1934.874709
 21
1056.926632
 31
0.0
  0
LINE
  5
234
100
AcDbEntity
  8
025-DWG
100
AcDbLine
 10
1955.586941
 20
1049.471456
 30
0.0
 11
1934.874709
 21
1049.471456
 31
0.0
  0
LINE
  5
235
100
AcDbEntity
  8
035-DWG
100
AcDbLine
 10
1910.063743
 20
1056.240415
 30
0.0
 11
1912.891919
 21
1056.796365
 31
0.0
  0
LINE
  5
236
100
AcDbEntity
  8
025-DWG
100
AcDbLine
 10
1914.162476
 20
1049.471456
 30
0.0
 11
1934.874709
 21
1049.471456
 31
0.0
  0
LINE
  5
237
100
AcDbEntity
  8
035-DWG
100
AcDbLine
 10
1913.557686
 20
1056.926632
 30
0.0
 11
1934.874709
 21
1056.926632
 31
0.0
  0
LINE
  5
238
100
AcDbEntity
  8
035-DWG
100
AcDbLine
 10
1959.685674
 20
1056.240415
 30
0.0
 11
1956.857499
 21
1056.796365
 31
0.0
  0
ARC
  5
239
100
AcDbEntity
  8
035-DWG
100
AcDbCircle
 10
1955.513339
 20
1049.926632
 30
0.0
 40
7.0
100
AcDbArc
 50
78.929145
 51
90.0
  0
LINE
  5
23A
100
AcDbEntity
  8
035-DWG
100
AcDbLine
 10
1978.418868
 20
1052.577581
 30
0.0
 11
1959.68707
 21
1056.24272
 31
0.0
  0
LINE
  5
23B
100
AcDbEntity
  8
025-DWG
100
AcDbLine
 10
1979.23819
 20
1049.471456
 30
0.0
 11
1955.586941
 21
1049.471456
 31
0.0
  0
LINE
  5
23C
100
AcDbEntity
  8
035-DWG
100
AcDbLine
 10
2085.374709
 20
765.8
 30
0.0
 11
2016.124709
 21
765.8
 31
0.0
  0
LINE
  5
23D
100
AcDbEntity
  8
035-DWG
100
AcDbLine
 10
2085.374709
 20
803.25
 30
0.0
 11
2014.874709
 21
803.25
 31
0.0
  0
LINE
  5
23E
100
AcDbEntity
  8
035-DWG
100
AcDbLine
 10
2016.124709
 20
803.25
 30
0.0
 11
2016.124709
 21
759.75
 31
0.0
  0
LINE
  5
23F
100
AcDbEntity
  8
035-DWG
100
AcDbLine
 10
2016.124709
 20
759.75
 30
0.0
 11
2014.874709
 21
759.75
 31
0.0
  0
LINE
  5
240
100
AcDbEntity
  8
035-DWG
100
AcDbLine
 10
2085.374709
 20
803.25
 30
0.0
 11
2085.374709
 21
765.8
 31
0.0
  0
LINE
  5
241
100
AcDbEntity
  8
035-DWG
100
AcDbLine
 10
1985.174709
 20
1002.926632
 30
0.0
 11
1985.174709
 21
964.926632
 31
0.0
  0
ARC
  5
242
100
AcDbEntity
  8
035-DWG
100
AcDbCircle
 10
1947.632438
 20
823.597226
 30
0.0
 40
144.937842
100
AcDbArc
 50
62.535412
 51
76.280888
  0
LINE
  5
243
100
AcDbEntity
  8
035-DWG
  6
CONTINUOUS
 62
     2
100
AcDbLine
 10
2017.648381
 20
928.6
 30
0.0
 11
2016.389978
 21
928.6
 31
0.0
  0
POLYLINE
  5
244
100
AcDbEntity
  8
035-DWG
  6
CONTINUOUS
 62
     2
100
AcDb2dPolyline
 66
     1
 10
0.0
 20
0.0
 30
0.0
 70
   128
  0
VERTEX
  5
245
100
AcDbEntity
  8
035-DWG
 62
     2
100
AcDbVertex
100
AcDb2dVertex
 10
2015.976769
 20
952.417664
 30
0.0
  0
VERTEX
  5
246
100
AcDbEntity
  8
035-DWG
 62
     2
100
AcDbVertex
100
AcDb2dVertex
 10
2016.198438
 20
952.335844
 30
0.0
  0
VERTEX
  5
247
100
AcDbEntity
  8
035-DWG
 62
     2
100
AcDbVertex
100
AcDb2dVertex
 10
2016.404223
 20
952.220704
 30
0.0
  0
VERTEX
  5
248
100
AcDbEntity
  8
035-DWG
 62
     2
100
AcDbVertex
100
AcDb2dVertex
 10
2016.588998
 20
952.07512
 30
0.0
  0
VERTEX
  5
249
100
AcDbEntity
  8
035-DWG
 62
     2
100
AcDbVertex
100
AcDb2dVertex
 10
2016.748172
 20
951.902715
 30
0.0
  0
VERTEX
  5
24A
100
AcDbEntity
  8
035-DWG
 62
     2
100
AcDbVertex
100
AcDb2dVertex
 10
2016.877752
 20
951.707791
 30
0.0
  0
VERTEX
  5
24B
100
AcDbEntity
  8
035-DWG
 62
     2
100
AcDbVertex
100
AcDb2dVertex
 10
2016.974491
 20
951.495204
 30
0.0
  0
VERTEX
  5
24C
100
AcDbEntity
  8
035-DWG
 62
     2
100
AcDbVertex
100
AcDb2dVertex
 10
2017.036033
 20
951.270256
 30
0.0
  0
VERTEX
  5
24D
100
AcDbEntity
  8
035-DWG
 62
     2
100
AcDbVertex
100
AcDb2dVertex
 10
2017.060798
 20
951.038554
 30
0.0
  0
SEQEND
  5
24E
100
AcDbEntity
  8
035-DWG
 62
     2
  0
POLYLINE
  5
24F
100
AcDbEntity
  8
035-DWG
  6
CONTINUOUS
 62
     2
100
AcDb2dPolyline
 66
     1
 10
0.0
 20
0.0
 30
0.0
 70
   128
  0
VERTEX
  5
250
100
AcDbEntity
  8
035-DWG
 62
     2
100
AcDbVertex
100
AcDb2dVertex
 10
2015.569162
 20
952.200001
 30
0.0
  0
VERTEX
  5
251
100
AcDbEntity
  8
035-DWG
 62
     2
100
AcDbVertex
100
AcDb2dVertex
 10
2015.672964
 20
952.213749
 30
0.0
  0
VERTEX
  5
252
100
AcDbEntity
  8
035-DWG
 62
     2
100
AcDbVertex
100
AcDb2dVertex
 10
2015.775513
 20
952.254616
 30
0.0
  0
VERTEX
  5
253
100
AcDbEntity
  8
035-DWG
 62
     2
100
AcDbVertex
100
AcDb2dVertex
 10
2015.876931
 20
952.322546
 30
0.0
  0
VERTEX
  5
254
100
AcDbEntity
  8
035-DWG
 62
     2
100
AcDbVertex
100
AcDb2dVertex
 10
2015.976769
 20
952.417664
 30
0.0
  0
SEQEND
  5
255
100
AcDbEntity
  8
035-DWG
 62
     2
  0
POLYLINE
  5
256
100
AcDbEntity
  8
035-DWG
  6
CONTINUOUS
 62
     2
100
AcDb2dPolyline
 66
     1
 10
0.0
 20
0.0
 30
0.0
 70
   128
  0
VERTEX
  5
257
100
AcDbEntity
  8
035-DWG
 62
     2
100
AcDbVertex
100
AcDb2dVertex
 10
2017.068636
 20
950.739266
 30
0.0
  0
VERTEX
  5
258
100
AcDbEntity
  8
035-DWG
 62
     2
100
AcDbVertex
100
AcDb2dVertex
 10
2016.953331
 20
950.744349
 30
0.0
  0
VERTEX
  5
259
100
AcDbEntity
  8
035-DWG
 62
     2
100
AcDbVertex
100
AcDb2dVertex
 10
2016.57049
 20
950.745206
 30
0.0
  0
VERTEX
  5
25A
100
AcDbEntity
  8
035-DWG
 62
     2
100
AcDbVertex
100
AcDb2dVertex
 10
2015.962046
 20
950.740967
 30
0.0
  0
VERTEX
  5
25B
100
AcDbEntity
  8
035-DWG
 62
     2
100
AcDbVertex
100
AcDb2dVertex
 10
2015.792739
 20
950.739266
 30
0.0
  0
SEQEND
  5
25C
100
AcDbEntity
  8
035-DWG
 62
     2
  0
POLYLINE
  5
25D
100
AcDbEntity
  8
035-DWG
  6
CONTINUOUS
 62
     2
100
AcDb2dPolyline
 66
     1
 10
0.0
 20
0.0
 30
0.0
 70
   128
  0
VERTEX
  5
25E
100
AcDbEntity
  8
035-DWG
 62
     2
100
AcDbVertex
100
AcDb2dVertex
 10
2015.058797
 20
952.200001
 30
0.0
  0
VERTEX
  5
25F
100
AcDbEntity
  8
035-DWG
 62
     2
100
AcDbVertex
100
AcDb2dVertex
 10
2015.199673
 20
952.172128
 30
0.0
  0
VERTEX
  5
260
100
AcDbEntity
  8
035-DWG
 62
     2
100
AcDbVertex
100
AcDb2dVertex
 10
2015.335333
 20
952.089546
 30
0.0
  0
VERTEX
  5
261
100
AcDbEntity
  8
035-DWG
 62
     2
100
AcDbVertex
100
AcDb2dVertex
 10
2015.460682
 20
951.955326
 30
0.0
  0
VERTEX
  5
262
100
AcDbEntity
  8
035-DWG
 62
     2
100
AcDbVertex
100
AcDb2dVertex
 10
2015.571129
 20
951.774454
 30
0.0
  0
VERTEX
  5
263
100
AcDbEntity
  8
035-DWG
 62
     2
100
AcDbVertex
100
AcDb2dVertex
 10
2015.662503
 20
951.55365
 30
0.0
  0
VERTEX
  5
264
100
AcDbEntity
  8
035-DWG
 62
     2
100
AcDbVertex
100
AcDb2dVertex
 10
2015.731466
 20
951.301124
 30
0.0
  0
VERTEX
  5
265
100
AcDbEntity
  8
035-DWG
 62
     2
100
AcDbVertex
100
AcDb2dVertex
 10
2015.775424
 20
951.026257
 30
0.0
  0
VERTEX
  5
266
100
AcDbEntity
  8
035-DWG
 62
     2
100
AcDbVertex
100
AcDb2dVertex
 10
2015.792739
 20
950.739266
 30
0.0
  0
SEQEND
  5
267
100
AcDbEntity
  8
035-DWG
 62
     2
  0
LINE
  5
268
100
AcDbEntity
  8
035-DWG
  6
CONTINUOUS
 62
     2
100
AcDbLine
 10
2015.058797
 20
952.200001
 30
0.0
 11
2015.569162
 21
952.200001
 31
0.0
  0
ARC
  5
269
100
AcDbEntity
  8
035-DWG
  6
CONTINUOUS
 62
     2
100
AcDbCircle
 10
2015.569156
 20
950.7
 30
0.0
 40
1.5
100
AcDbArc
 50
1.5
 51
90.0
  0
POLYLINE
  5
26A
100
AcDbEntity
  8
025-DWG
  6
CONTINUOUS
 62
     7
100
AcDb2dPolyline
 66
     1
 10
0.0
 20
0.0
 30
0.0
 70
   128
  0
VERTEX
  5
26B
100
AcDbEntity
  8
025-DWG
 62
     7
100
AcDbVertex
100
AcDb2dVertex
 10
2016.389978
 20
928.6
 30
0.0
  0
VERTEX
  5
26C
100
AcDbEntity
  8
025-DWG
 62
     7
100
AcDbVertex
100
AcDb2dVertex
 10
2016.255212
 20
933.597639
 30
0.0
  0
VERTEX
  5
26D
100
AcDbEntity
  8
025-DWG
 62
     7
100
AcDbVertex
100
AcDb2dVertex
 10
2015.792739
 20
950.739266
 30
0.0
  0
SEQEND
  5
26E
100
AcDbEntity
  8
025-DWG
 62
     7
  0
LINE
  5
26F
100
AcDbEntity
  8
035-DWG
  6
CONTINUOUS
 62
     2
100
AcDbLine
 10
2017.068636
 20
950.739266
 30
0.0
 11
2017.648381
 21
928.6
 31
0.0
  0
LINE
  5
270
100
AcDbEntity
  8
035-DWG
  6
CONTINUOUS
 62
     2
100
AcDbLine
 10
1994.148385
 20
952.200001
 30
0.0
 11
1994.148385
 21
950.739266
 31
0.0
  0
LINE
  5
271
100
AcDbEntity
  8
025-DWG
  6
CONTINUOUS
 62
     7
100
AcDbLine
 10
1994.148385
 20
950.739266
 30
0.0
 11
1994.148385
 21
928.6
 31
0.0
  0
LINE
  5
272
100
AcDbEntity
  8
035-DWG
  6
CONTINUOUS
 62
     2
100
AcDbLine
 10
2015.792739
 20
950.739266
 30
0.0
 11
1994.148385
 21
950.739266
 31
0.0
  0
LINE
  5
273
100
AcDbEntity
  8
035-DWG
  6
CONTINUOUS
 62
     2
100
AcDbLine
 10
1994.148385
 20
952.200001
 30
0.0
 11
2015.058797
 21
952.200001
 31
0.0
  0
LINE
  5
274
100
AcDbEntity
  8
035-DWG
  6
CONTINUOUS
 62
     2
100
AcDbLine
 10
1994.148385
 20
928.6
 30
0.0
 11
2016.389978
 21
928.6
 31
0.0
  0
LINE
  5
275
100
AcDbEntity
  8
035-DWG
100
AcDbLine
 10
1984.674709
 20
1005.926632
 30
0.0
 11
1985.174709
 21
1002.926632
 31
0.0
  0
LINE
  5
276
100
AcDbEntity
  8
035-DWG
100
AcDbLine
 10
1984.074709
 20
1005.926632
 30
0.0
 11
1984.074709
 21
1045.707848
 31
0.0
  0
LINE
  5
277
100
AcDbEntity
  8
035-DWG
100
AcDbLine
 10
1609.383217
 20
557.829728
 30
0.421745
 11
1609.383217
 21
696.015882
 31
0.421745
  0
LINE
  5
278
100
AcDbEntity
  8
035-DWG
100
AcDbLine
 10
1596.598485
 20
541.516227
 30
0.421745
 11
1596.598485
 21
687.210203
 31
0.421745
  0
LINE
  5
279
100
AcDbEntity
  8
035-DWG
100
AcDbLine
 10
1589.078376
 20
543.942668
 30
0.421745
 11
1589.078376
 21
647.578069
 31
0.421745
  0
LINE
  5
27A
100
AcDbEntity
  8
035-DWG
100
AcDbLine
 10
1609.383217
 20
703.301368
 30
0.421745
 11
1609.383217
 21
763.027076
 31
0.421745
  0
LINE
  5
27B
100
AcDbEntity
  8
035-DWG
100
AcDbLine
 10
1596.598485
 20
694.495689
 30
0.421745
 11
1596.598485
 21
764.145596
 31
0.421745
  0
LINE
  5
27C
100
AcDbEntity
  8
035-DWG
100
AcDbLine
 10
1589.078376
 20
689.316099
 30
0.421745
 11
1589.078376
 21
764.80352
 31
0.421745
  0
LINE
  5
27D
100
AcDbEntity
  8
035-DWG
100
AcDbLine
 10
1589.078376
 20
647.578069
 30
0.421745
 11
1589.078376
 21
682.030613
 31
0.421745
  0
LWPOLYLINE
  5
27E
100
AcDbEntity
  8
035-DWG
100
AcDbPolyline
 90
        5
 70
     0
 43
0.0
 38
0.421745
 10
1585.689593
 20
765.1
 10
1586.289987
 20
765.047472
 10
1588.063783
 20
764.892285
 10
1590.93006
 20
764.641519
 10
1610.064027
 20
762.967513
  0
LINE
  5
27F
100
AcDbEntity
  8
025-DWG
100
AcDbLine
 10
1594.926272
 20
774.126177
 30
0.421745
 11
1585.925951
 21
774.126177
 31
0.421745
  0
LINE
  5
280
100
AcDbEntity
  8
035-DWG
100
AcDbLine
 10
1586.925609
 20
775.1
 30
0.421745
 11
1595.580221
 21
775.1
 31
0.421745
  0
LINE
  5
281
100
AcDbEntity
  8
035-DWG
100
AcDbLine
 10
1585.925951
 20
774.126177
 30
0.421745
 11
1585.689593
 21
765.1
 31
0.421745
  0
ARC
  5
282
100
AcDbEntity
  8
035-DWG
100
AcDbCircle
 10
1586.925609
 20
774.1
 30
0.421745
 40
1.0
100
AcDbArc
 50
90.0
 51
178.5
  0
LWPOLYLINE
  5
283
100
AcDbEntity
  8
025-DWG
100
AcDbPolyline
 90
        2
 70
     0
 43
0.0
 38
0.421745
 10
1609.476238
 20
767.594243
 10
1609.496691
 20
773.629343
  0
LINE
  5
284
100
AcDbEntity
  8
025-DWG
100
AcDbLine
 10
1607.4039
 20
773.382978
 30
0.421745
 11
1607.371413
 21
763.203086
 31
0.421745
  0
LINE
  5
285
100
AcDbEntity
  8
025-DWG
100
AcDbLine
 10
1608.396446
 20
773.382978
 30
0.421745
 11
1608.363682
 21
763.116274
 31
0.421745
  0
LINE
  5
286
100
AcDbEntity
  8
025-DWG
100
AcDbLine
 10
1609.372448
 20
773.319989
 30
0.421745
 11
1609.339613
 21
763.030891
 31
0.421745
  0
LINE
  5
287
100
AcDbEntity
  8
025-DWG
100
AcDbLine
 10
1608.89076
 20
773.353309
 30
0.421745
 11
1608.857953
 21
763.073031
 31
0.421745
  0
LINE
  5
288
100
AcDbEntity
  8
025-DWG
100
AcDbLine
 10
1607.898214
 20
773.353309
 30
0.421745
 11
1607.865684
 21
763.159843
 31
0.421745
  0
LWPOLYLINE
  5
289
100
AcDbEntity
  8
035-DWG
100
AcDbPolyline
 90
        3
 70
     0
 43
0.0
 38
0.421745
 10
1610.064027
 20
762.967513
 10
1610.031664
 20
768.528566
 10
1609.999391
 20
774.115966
  0
LINE
  5
28A
100
AcDbEntity
  8
025-DWG
100
AcDbLine
 10
1601.448623
 20
773.382978
 30
0.421745
 11
1601.417799
 21
763.72396
 31
0.421745
  0
LINE
  5
28B
100
AcDbEntity
  8
025-DWG
100
AcDbLine
 10
1600.456077
 20
773.382978
 30
0.421745
 11
1600.42553
 21
763.810773
 31
0.421745
  0
LINE
  5
28C
100
AcDbEntity
  8
025-DWG
100
AcDbLine
 10
1599.957844
 20
773.353309
 30
0.421745
 11
1599.927531
 21
763.854342
 31
0.421745
  0
LINE
  5
28D
100
AcDbEntity
  8
025-DWG
100
AcDbLine
 10
1600.950391
 20
773.353309
 30
0.421745
 11
1600.9198
 21
763.76753
 31
0.421745
  0
LINE
  5
28E
100
AcDbEntity
  8
025-DWG
100
AcDbLine
 10
1601.942937
 20
773.353309
 30
0.421745
 11
1601.912069
 21
763.680717
 31
0.421745
  0
LINE
  5
28F
100
AcDbEntity
  8
025-DWG
100
AcDbLine
 10
1602.441169
 20
773.382978
 30
0.421745
 11
1602.410068
 21
763.637148
 31
0.421745
  0
LINE
  5
290
100
AcDbEntity
  8
025-DWG
100
AcDbLine
 10
1603.433715
 20
773.382978
 30
0.421745
 11
1603.402337
 21
763.550336
 31
0.421745
  0
LINE
  5
291
100
AcDbEntity
  8
025-DWG
100
AcDbLine
 10
1604.426262
 20
773.382978
 30
0.421745
 11
1604.394606
 21
763.463523
 31
0.421745
  0
LINE
  5
292
100
AcDbEntity
  8
025-DWG
100
AcDbLine
 10
1605.418808
 20
773.382978
 30
0.421745
 11
1605.386875
 21
763.376711
 31
0.421745
  0
LINE
  5
293
100
AcDbEntity
  8
025-DWG
100
AcDbLine
 10
1606.411354
 20
773.382978
 30
0.421745
 11
1606.379144
 21
763.289899
 31
0.421745
  0
LINE
  5
294
100
AcDbEntity
  8
025-DWG
100
AcDbLine
 10
1606.905668
 20
773.353309
 30
0.421745
 11
1606.873415
 21
763.246656
 31
0.421745
  0
LINE
  5
295
100
AcDbEntity
  8
025-DWG
100
AcDbLine
 10
1605.913121
 20
773.353309
 30
0.421745
 11
1605.881145
 21
763.333468
 31
0.421745
  0
LINE
  5
296
100
AcDbEntity
  8
025-DWG
100
AcDbLine
 10
1604.920575
 20
773.353309
 30
0.421745
 11
1604.888876
 21
763.42028
 31
0.421745
  0
LINE
  5
297
100
AcDbEntity
  8
025-DWG
100
AcDbLine
 10
1603.928029
 20
773.353309
 30
0.421745
 11
1603.896607
 21
763.507093
 31
0.421745
  0
LINE
  5
298
100
AcDbEntity
  8
025-DWG
100
AcDbLine
 10
1602.935483
 20
773.353309
 30
0.421745
 11
1602.904338
 21
763.593905
 31
0.421745
  0
LINE
  5
299
100
AcDbEntity
  8
025-DWG
100
AcDbLine
 10
1594.926272
 20
774.126177
 30
0.421745
 11
1594.758062
 21
764.306612
 31
0.421745
  0
LINE
  5
29A
100
AcDbEntity
  8
025-DWG
100
AcDbLine
 10
1599.463531
 20
773.382978
 30
0.421745
 11
1599.43326
 21
763.897585
 31
0.421745
  0
LINE
  5
29B
100
AcDbEntity
  8
025-DWG
100
AcDbLine
 10
1598.470985
 20
773.382978
 30
0.421745
 11
1598.440991
 21
763.984397
 31
0.421745
  0
LINE
  5
29C
100
AcDbEntity
  8
025-DWG
100
AcDbLine
 10
1597.478438
 20
773.382978
 30
0.421745
 11
1597.448722
 21
764.071209
 31
0.421745
  0
LINE
  5
29D
100
AcDbEntity
  8
025-DWG
100
AcDbLine
 10
1596.982531
 20
773.319989
 30
0.421745
 11
1596.953154
 21
764.114566
 31
0.421745
  0
LINE
  5
29E
100
AcDbEntity
  8
025-DWG
100
AcDbLine
 10
1596.907837
 20
764.118531
 30
0.421745
 11
1596.938179
 21
773.626348
 31
0.421745
  0
LINE
  5
29F
100
AcDbEntity
  8
025-DWG
100
AcDbLine
 10
1596.270605
 20
774.126177
 30
0.421745
 11
1596.238855
 21
764.177059
 31
0.421745
  0
LINE
  5
2A0
100
AcDbEntity
  8
025-DWG
100
AcDbLine
 10
1597.972752
 20
773.353309
 30
0.421745
 11
1597.942993
 21
764.027966
 31
0.421745
  0
LINE
  5
2A1
100
AcDbEntity
  8
025-DWG
100
AcDbLine
 10
1598.965298
 20
773.353309
 30
0.421745
 11
1598.935262
 21
763.941154
 31
0.421745
  0
LINE
  5
2A2
100
AcDbEntity
  8
025-DWG
100
AcDbLine
 10
1609.476238
 20
767.594243
 30
0.421745
 11
1609.461641
 21
763.020215
 31
0.421745
  0
LWPOLYLINE
  5
2A3
100
AcDbEntity
  8
025-DWG
100
AcDbPolyline
 90
      124
 70
     0
 43
0.0
 38
0.421745
 10
1609.476238
 20
767.594243
 10
1609.476454
 20
767.557018
 10
1609.47667
 20
767.519794
 10
1609.476886
 20
767.48257
 10
1609.477102
 20
767.445346
 10
1609.477319
 20
767.408122
 10
1609.477535
 20
767.370898
 10
1609.477751
 20
767.333674
 10
1609.477967
 20
767.296451
 10
1609.478183
 20
767.259227
 10
1609.4784
 20
767.222004
 10
1609.478616
 20
767.184781
 10
1609.478832
 20
767.147558
 10
1609.479048
 20
767.110335
 10
1609.479264
 20
767.073112
 10
1609.479481
 20
767.03589
 10
1609.479697
 20
766.998667
 10
1609.479913
 20
766.961445
 10
1609.480129
 20
766.924222
 10
1609.480346
 20
766.887
 10
1609.480562
 20
766.849778
 10
1609.480778
 20
766.812556
 10
1609.480995
 20
766.775335
 10
1609.481211
 20
766.738113
 10
1609.481427
 20
766.700892
 10
1609.481644
 20
766.66367
 10
1609.48186
 20
766.626449
 10
1609.482076
 20
766.589228
 10
1609.482293
 20
766.552007
 10
1609.482509
 20
766.514786
 10
1609.482726
 20
766.477566
 10
1609.482942
 20
766.440345
 10
1609.483158
 20
766.403125
 10
1609.483375
 20
766.365904
 10
1609.483591
 20
766.328684
 10
1609.483808
 20
766.291464
 10
1609.484024
 20
766.254244
 10
1609.484241
 20
766.217024
 10
1609.484457
 20
766.179805
 10
1609.484674
 20
766.142585
 10
1609.48489
 20
766.105366
 10
1609.485107
 20
766.068146
 10
1609.485323
 20
766.030927
 10
1609.48554
 20
765.993708
 10
1609.485756
 20
765.956489
 10
1609.485973
 20
765.919271
 10
1609.486189
 20
765.882052
 10
1609.486406
 20
765.844834
 10
1609.486622
 20
765.807615
 10
1609.486839
 20
765.770397
 10
1609.487056
 20
765.733179
 10
1609.487272
 20
765.695961
 10
1609.487489
 20
765.658743
 10
1609.487705
 20
765.621525
 10
1609.487922
 20
765.584308
 10
1609.488139
 20
765.54709
 10
1609.488355
 20
765.509873
 10
1609.488572
 20
765.472656
 10
1609.488789
 20
765.435439
 10
1609.489005
 20
765.398222
 10
1609.489222
 20
765.361005
 10
1609.489439
 20
765.323788
 10
1609.489656
 20
765.286572
 10
1609.489872
 20
765.249355
 10
1609.490089
 20
765.212139
 10
1609.490306
 20
765.174923
 10
1609.490523
 20
765.137707
 10
1609.490739
 20
765.100491
 10
1609.490956
 20
765.063275
 10
1609.491173
 20
765.026059
 10
1609.49139
 20
764.988844
 10
1609.491607
 20
764.951628
 10
1609.491823
 20
764.914413
 10
1609.49204
 20
764.877198
 10
1609.492257
 20
764.839983
 10
1609.492474
 20
764.802768
 10
1609.492691
 20
764.765553
 10
1609.492908
 20
764.728339
 10
1609.493124
 20
764.691124
 10
1609.493341
 20
764.65391
 10
1609.493558
 20
764.616696
 10
1609.493775
 20
764.579481
 10
1609.493992
 20
764.542268
 10
1609.494209
 20
764.505054
 10
1609.494426
 20
764.46784
 10
1609.494643
 20
764.430626
 10
1609.49486
 20
764.393413
 10
1609.495077
 20
764.3562
 10
1609.495294
 20
764.318986
 10
1609.495511
 20
764.281773
 10
1609.495728
 20
764.24456
 10
1609.495945
 20
764.207348
 10
1609.496162
 20
764.170135
 10
1609.496379
 20
764.132922
 10
1609.496596
 20
764.09571
 10
1609.496813
 20
764.058498
 10
1609.49703
 20
764.021285
 10
1609.497247
 20
763.984073
 10
1609.497464
 20
763.946862
 10
1609.497681
 20
763.90965
 10
1609.497898
 20
763.872438
 10
1609.498116
 20
763.835227
 10
1609.498333
 20
763.798015
 10
1609.49855
 20
763.760804
 10
1609.498767
 20
763.723593
 10
1609.498984
 20
763.686382
 10
1609.499201
 20
763.649171
 10
1609.499418
 20
763.61196
 10
1609.499636
 20
763.57475
 10
1609.499853
 20
763.537539
 10
1609.50007
 20
763.500329
 10
1609.500287
 20
763.463119
 10
1609.500504
 20
763.425908
 10
1609.500722
 20
763.388699
 10
1609.500939
 20
763.351489
 10
1609.501156
 20
763.314279
 10
1609.501373
 20
763.277069
 10
1609.501591
 20
763.23986
 10
1609.501808
 20
763.202651
 10
1609.502025
 20
763.165441
 10
1609.502243
 20
763.128232
 10
1609.50246
 20
763.091023
 10
1609.502677
 20
763.053815
 10
1609.502895
 20
763.016606
  0
LWPOLYLINE
  5
2A4
100
AcDbEntity
  8
025-DWG
100
AcDbPolyline
 90
        6
 70
     0
 43
0.0
 38
0.421745
 10
1608.396446
 20
773.382978
 10
1608.330685
 20
773.239929
 10
1608.195263
 20
773.151519
 10
1608.041906
 20
773.151519
 10
1607.929192
 20
773.239929
 10
1607.900173
 20
773.382978
  0
LINE
  5
2A5
100
AcDbEntity
  8
025-DWG
100
AcDbLine
 10
1607.683291
 20
773.626348
 30
0.421745
 11
1608.675837
 21
773.626348
 31
0.421745
  0
LWPOLYLINE
  5
2A6
100
AcDbEntity
  8
025-DWG
100
AcDbPolyline
 90
        4
 70
     0
 43
0.0
 38
0.421745
 10
1607.683291
 20
773.626348
 10
1607.555035
 20
773.593743
 10
1607.452771
 20
773.504663
 10
1607.4039
 20
773.382978
  0
LWPOLYLINE
  5
2A7
100
AcDbEntity
  8
025-DWG
100
AcDbPolyline
 90
        3
 70
     0
 43
0.0
 38
0.421745
 10
1607.900173
 20
773.382978
 10
1607.849596
 20
773.555067
 10
1607.683291
 20
773.626348
  0
LWPOLYLINE
  5
2A8
100
AcDbEntity
  8
025-DWG
100
AcDbPolyline
 90
        6
 70
     0
 43
0.0
 38
0.421745
 10
1609.372448
 20
773.319989
 10
1609.283665
 20
773.202119
 10
1609.148803
 20
773.142604
 10
1609.011377
 20
773.160649
 10
1608.915729
 20
773.250429
 10
1608.892719
 20
773.382978
  0
LWPOLYLINE
  5
2A9
100
AcDbEntity
  8
025-DWG
100
AcDbPolyline
 90
        3
 70
     0
 43
0.0
 38
0.421745
 10
1608.892719
 20
773.382978
 10
1608.842142
 20
773.555067
 10
1608.675837
 20
773.626348
  0
LINE
  5
2AA
100
AcDbEntity
  8
025-DWG
100
AcDbLine
 10
1609.496691
 20
773.629343
 30
0.421745
 11
1609.372448
 21
773.319989
 31
0.421745
  0
LWPOLYLINE
  5
2AB
100
AcDbEntity
  8
025-DWG
100
AcDbPolyline
 90
        4
 70
     0
 43
0.0
 38
0.421745
 10
1608.675837
 20
773.626348
 10
1608.547582
 20
773.593743
 10
1608.445317
 20
773.504663
 10
1608.396446
 20
773.382978
  0
LINE
  5
2AC
100
AcDbEntity
  8
025-DWG
100
AcDbLine
 10
1608.675837
 20
773.626348
 30
0.421745
 11
1609.441362
 21
773.626348
 31
0.421745
  0
LWPOLYLINE
  5
2AD
100
AcDbEntity
  8
025-DWG
100
AcDbPolyline
 90
        2
 70
     0
 43
0.0
 38
0.421745
 10
1609.496691
 20
773.629343
 10
1609.441362
 20
773.626348
  0
LWPOLYLINE
  5
2AE
100
AcDbEntity
  8
025-DWG
100
AcDbPolyline
 90
       14
 70
     0
 43
0.0
 38
0.421745
 10
1609.438485
 20
774.126177
 10
1609.438706
 20
774.087728
 10
1609.438928
 20
774.049279
 10
1609.439149
 20
774.01083
 10
1609.43937
 20
773.972381
 10
1609.439591
 20
773.933932
 10
1609.439813
 20
773.895484
 10
1609.440034
 20
773.857036
 10
1609.440255
 20
773.818587
 10
1609.440477
 20
773.780139
 10
1609.440698
 20
773.741691
 10
1609.440919
 20
773.703243
 10
1609.441141
 20
773.664796
 10
1609.441362
 20
773.626348
  0
ELLIPSE
  5
2AF
100
AcDbEntity
  8
025-DWG
100
AcDbEllipse
 10
1609.499399
 20
774.113088
 30
0.421745
 11
0.4999917225104582
 21
0.0028770507667781
 31
0.0
210
0.0
220
0.0
230
1.0
 40
0.027079
 41
-0.000000000001634
 42
1.692773513601811
  0
LWPOLYLINE
  5
2B0
100
AcDbEntity
  8
025-DWG
100
AcDbPolyline
 90
        6
 70
     0
 43
0.0
 38
0.421745
 10
1609.390986
 20
775.1
 10
1609.398761
 20
775.085822
 10
1609.420905
 20
774.8712
 10
1609.432523
 20
774.579784
 10
1609.437273
 20
774.322778
 10
1609.438485
 20
774.126177
  0
LWPOLYLINE
  5
2B1
100
AcDbEntity
  8
035-DWG
100
AcDbPolyline
 90
        7
 70
     0
 43
0.0
 38
0.421745
 10
1609.999391
 20
774.115966
 10
1609.984438
 20
774.38205
 10
1609.931675
 20
774.653555
 10
1609.868112
 20
774.806894
 10
1609.73034
 20
774.975989
 10
1609.568847
 20
775.068868
 10
1609.390986
 20
775.1
  0
LINE
  5
2B2
100
AcDbEntity
  8
035-DWG
100
AcDbLine
 10
1600.551452
 20
775.1
 30
0.421745
 11
1600.551452
 21
775.6
 31
0.421745
  0
LINE
  5
2B3
100
AcDbEntity
  8
035-DWG
100
AcDbLine
 10
1595.580221
 20
775.1
 30
0.421745
 11
1596.392433
 21
775.1
 31
0.421745
  0
LWPOLYLINE
  5
2B4
100
AcDbEntity
  8
025-DWG
100
AcDbPolyline
 90
        6
 70
     0
 43
0.0
 38
0.421745
 10
1606.411354
 20
773.382978
 10
1606.345593
 20
773.239929
 10
1606.210171
 20
773.151519
 10
1606.056814
 20
773.151519
 10
1605.9441
 20
773.239929
 10
1605.915081
 20
773.382978
  0
LINE
  5
2B5
100
AcDbEntity
  8
025-DWG
100
AcDbLine
 10
1605.698199
 20
773.626348
 30
0.421745
 11
1606.690745
 21
773.626348
 31
0.421745
  0
LWPOLYLINE
  5
2B6
100
AcDbEntity
  8
025-DWG
100
AcDbPolyline
 90
        6
 70
     0
 43
0.0
 38
0.421745
 10
1604.426262
 20
773.382978
 10
1604.360501
 20
773.239929
 10
1604.225079
 20
773.151519
 10
1604.071722
 20
773.151519
 10
1603.959007
 20
773.239929
 10
1603.929988
 20
773.382978
  0
LINE
  5
2B7
100
AcDbEntity
  8
025-DWG
100
AcDbLine
 10
1603.713106
 20
773.626348
 30
0.421745
 11
1604.705653
 21
773.626348
 31
0.421745
  0
LWPOLYLINE
  5
2B8
100
AcDbEntity
  8
025-DWG
100
AcDbPolyline
 90
        3
 70
     0
 43
0.0
 38
0.421745
 10
1603.929988
 20
773.382978
 10
1603.879411
 20
773.555067
 10
1603.713106
 20
773.626348
  0
LWPOLYLINE
  5
2B9
100
AcDbEntity
  8
025-DWG
100
AcDbPolyline
 90
        3
 70
     0
 43
0.0
 38
0.421745
 10
1604.705653
 20
773.626348
 10
1604.521039
 20
773.555067
 10
1604.426262
 20
773.382978
  0
LWPOLYLINE
  5
2BA
100
AcDbEntity
  8
025-DWG
100
AcDbPolyline
 90
        6
 70
     0
 43
0.0
 38
0.421745
 10
1605.418808
 20
773.382978
 10
1605.353047
 20
773.239929
 10
1605.217625
 20
773.151519
 10
1605.064268
 20
773.151519
 10
1604.951554
 20
773.239929
 10
1604.922535
 20
773.382978
  0
LWPOLYLINE
  5
2BB
100
AcDbEntity
  8
025-DWG
100
AcDbPolyline
 90
        3
 70
     0
 43
0.0
 38
0.421745
 10
1604.922535
 20
773.382978
 10
1604.871957
 20
773.555067
 10
1604.705653
 20
773.626348
  0
LWPOLYLINE
  5
2BC
100
AcDbEntity
  8
025-DWG
100
AcDbPolyline
 90
        4
 70
     0
 43
0.0
 38
0.421745
 10
1605.698199
 20
773.626348
 10
1605.569943
 20
773.593743
 10
1605.467679
 20
773.504663
 10
1605.418808
 20
773.382978
  0
LWPOLYLINE
  5
2BD
100
AcDbEntity
  8
025-DWG
100
AcDbPolyline
 90
        3
 70
     0
 43
0.0
 38
0.421745
 10
1605.915081
 20
773.382978
 10
1605.864503
 20
773.555067
 10
1605.698199
 20
773.626348
  0
LINE
  5
2BE
100
AcDbEntity
  8
025-DWG
100
AcDbLine
 10
1604.705653
 20
773.626348
 30
0.421745
 11
1605.698199
 21
773.626348
 31
0.421745
  0
LWPOLYLINE
  5
2BF
100
AcDbEntity
  8
025-DWG
100
AcDbPolyline
 90
        4
 70
     0
 43
0.0
 38
0.421745
 10
1606.690745
 20
773.626348
 10
1606.562489
 20
773.593743
 10
1606.460225
 20
773.504663
 10
1606.411354
 20
773.382978
  0
LWPOLYLINE
  5
2C0
100
AcDbEntity
  8
025-DWG
100
AcDbPolyline
 90
        3
 70
     0
 43
0.0
 38
0.421745
 10
1606.907627
 20
773.382978
 10
1606.85705
 20
773.555067
 10
1606.690745
 20
773.626348
  0
LWPOLYLINE
  5
2C1
100
AcDbEntity
  8
025-DWG
100
AcDbPolyline
 90
        6
 70
     0
 43
0.0
 38
0.421745
 10
1602.441169
 20
773.382978
 10
1602.375408
 20
773.239929
 10
1602.239986
 20
773.151519
 10
1602.08663
 20
773.151519
 10
1601.973915
 20
773.239929
 10
1601.944896
 20
773.382978
  0
LINE
  5
2C2
100
AcDbEntity
  8
025-DWG
100
AcDbLine
 10
1601.728014
 20
773.626348
 30
0.421745
 11
1602.72056
 21
773.626348
 31
0.421745
  0
LWPOLYLINE
  5
2C3
100
AcDbEntity
  8
025-DWG
100
AcDbPolyline
 90
        7
 70
     0
 43
0.0
 38
0.421745
 10
1600.456077
 20
773.382978
 10
1600.407206
 20
773.261293
 10
1600.304942
 20
773.172214
 10
1600.176686
 20
773.139608
 10
1600.056805
 20
773.172214
 10
1599.977421
 20
773.261293
 10
1599.959804
 20
773.382978
  0
LWPOLYLINE
  5
2C4
100
AcDbEntity
  8
025-DWG
100
AcDbPolyline
 90
        4
 70
     0
 43
0.0
 38
0.421745
 10
1600.735468
 20
773.626348
 10
1600.607212
 20
773.593743
 10
1600.504948
 20
773.504663
 10
1600.456077
 20
773.382978
  0
LWPOLYLINE
  5
2C5
100
AcDbEntity
  8
025-DWG
100
AcDbPolyline
 90
        4
 70
     0
 43
0.0
 38
0.421745
 10
1601.728014
 20
773.626348
 10
1601.599758
 20
773.593743
 10
1601.497494
 20
773.504663
 10
1601.448623
 20
773.382978
  0
LWPOLYLINE
  5
2C6
100
AcDbEntity
  8
025-DWG
100
AcDbPolyline
 90
        6
 70
     0
 43
0.0
 38
0.421745
 10
1601.448623
 20
773.382978
 10
1601.382862
 20
773.239929
 10
1601.24744
 20
773.151519
 10
1601.094083
 20
773.151519
 10
1600.981369
 20
773.239929
 10
1600.95235
 20
773.382978
  0
LWPOLYLINE
  5
2C7
100
AcDbEntity
  8
025-DWG
100
AcDbPolyline
 90
        3
 70
     0
 43
0.0
 38
0.421745
 10
1600.95235
 20
773.382978
 10
1600.901773
 20
773.555067
 10
1600.735468
 20
773.626348
  0
LWPOLYLINE
  5
2C8
100
AcDbEntity
  8
025-DWG
100
AcDbPolyline
 90
        3
 70
     0
 43
0.0
 38
0.421745
 10
1601.944896
 20
773.382978
 10
1601.894319
 20
773.555067
 10
1601.728014
 20
773.626348
  0
LINE
  5
2C9
100
AcDbEntity
  8
025-DWG
100
AcDbLine
 10
1600.735468
 20
773.626348
 30
0.421745
 11
1601.728014
 21
773.626348
 31
0.421745
  0
LWPOLYLINE
  5
2CA
100
AcDbEntity
  8
025-DWG
100
AcDbPolyline
 90
        4
 70
     0
 43
0.0
 38
0.421745
 10
1602.72056
 20
773.626348
 10
1602.592305
 20
773.593743
 10
1602.49004
 20
773.504663
 10
1602.441169
 20
773.382978
  0
LWPOLYLINE
  5
2CB
100
AcDbEntity
  8
025-DWG
100
AcDbPolyline
 90
        6
 70
     0
 43
0.0
 38
0.421745
 10
1603.433715
 20
773.382978
 10
1603.367955
 20
773.239929
 10
1603.232533
 20
773.151519
 10
1603.079176
 20
773.151519
 10
1602.966461
 20
773.239929
 10
1602.937442
 20
773.382978
  0
LWPOLYLINE
  5
2CC
100
AcDbEntity
  8
025-DWG
100
AcDbPolyline
 90
        3
 70
     0
 43
0.0
 38
0.421745
 10
1602.937442
 20
773.382978
 10
1602.886865
 20
773.555067
 10
1602.72056
 20
773.626348
  0
LWPOLYLINE
  5
2CD
100
AcDbEntity
  8
025-DWG
100
AcDbPolyline
 90
        4
 70
     0
 43
0.0
 38
0.421745
 10
1603.713106
 20
773.626348
 10
1603.584851
 20
773.593743
 10
1603.482587
 20
773.504663
 10
1603.433715
 20
773.382978
  0
LINE
  5
2CE
100
AcDbEntity
  8
025-DWG
100
AcDbLine
 10
1602.72056
 20
773.626348
 30
0.421745
 11
1603.713106
 21
773.626348
 31
0.421745
  0
LWPOLYLINE
  5
2CF
100
AcDbEntity
  8
025-DWG
100
AcDbPolyline
 90
        6
 70
     0
 43
0.0
 38
0.421745
 10
1598.470985
 20
773.382978
 10
1598.405224
 20
773.239929
 10
1598.269802
 20
773.151519
 10
1598.116445
 20
773.151519
 10
1598.003731
 20
773.239929
 10
1597.974712
 20
773.382978
  0
LINE
  5
2D0
100
AcDbEntity
  8
025-DWG
100
AcDbLine
 10
1597.757829
 20
773.626348
 30
0.421745
 11
1598.750376
 21
773.626348
 31
0.421745
  0
LWPOLYLINE
  5
2D1
100
AcDbEntity
  8
025-DWG
100
AcDbPolyline
 90
        4
 70
     0
 43
0.0
 38
0.421745
 10
1597.757829
 20
773.626348
 10
1597.629574
 20
773.593743
 10
1597.52731
 20
773.504663
 10
1597.478438
 20
773.382978
  0
LWPOLYLINE
  5
2D2
100
AcDbEntity
  8
025-DWG
100
AcDbPolyline
 90
        6
 70
     0
 43
0.0
 38
0.421745
 10
1597.478438
 20
773.382978
 10
1597.421384
 20
773.250429
 10
1597.302676
 20
773.160649
 10
1597.160615
 20
773.142604
 10
1597.04104
 20
773.202119
 10
1596.982531
 20
773.319989
  0
LINE
  5
2D3
100
AcDbEntity
  8
025-DWG
100
AcDbLine
 10
1596.982531
 20
773.319989
 30
0.421745
 11
1596.938179
 21
773.626348
 31
0.421745
  0
LWPOLYLINE
  5
2D4
100
AcDbEntity
  8
025-DWG
100
AcDbPolyline
 90
        4
 70
     0
 43
0.0
 38
0.421745
 10
1597.974712
 20
773.382978
 10
1597.957095
 20
773.504663
 10
1597.87771
 20
773.593743
 10
1597.757829
 20
773.626348
  0
LINE
  5
2D5
100
AcDbEntity
  8
025-DWG
100
AcDbLine
 10
1596.938179
 20
773.626348
 30
0.421745
 11
1597.757829
 21
773.626348
 31
0.421745
  0
LWPOLYLINE
  5
2D6
100
AcDbEntity
  8
025-DWG
100
AcDbPolyline
 90
        4
 70
     0
 43
0.0
 38
0.421745
 10
1598.750376
 20
773.626348
 10
1598.62212
 20
773.593743
 10
1598.519856
 20
773.504663
 10
1598.470985
 20
773.382978
  0
LWPOLYLINE
  5
2D7
100
AcDbEntity
  8
025-DWG
100
AcDbPolyline
 90
        3
 70
     0
 43
0.0
 38
0.421745
 10
1599.742922
 20
773.626348
 10
1599.558309
 20
773.555067
 10
1599.463531
 20
773.382978
  0
LWPOLYLINE
  5
2D8
100
AcDbEntity
  8
025-DWG
100
AcDbPolyline
 90
        6
 70
     0
 43
0.0
 38
0.421745
 10
1599.463531
 20
773.382978
 10
1599.39777
 20
773.239929
 10
1599.262348
 20
773.151519
 10
1599.108991
 20
773.151519
 10
1598.996277
 20
773.239929
 10
1598.967258
 20
773.382978
  0
LWPOLYLINE
  5
2D9
100
AcDbEntity
  8
025-DWG
100
AcDbPolyline
 90
        3
 70
     0
 43
0.0
 38
0.421745
 10
1598.967258
 20
773.382978
 10
1598.91668
 20
773.555067
 10
1598.750376
 20
773.626348
  0
LINE
  5
2DA
100
AcDbEntity
  8
025-DWG
100
AcDbLine
 10
1598.750376
 20
773.626348
 30
0.421745
 11
1599.742922
 21
773.626348
 31
0.421745
  0
LINE
  5
2DB
100
AcDbEntity
  8
025-DWG
100
AcDbLine
 10
1596.270605
 20
774.126177
 30
0.421745
 11
1594.926272
 21
774.126177
 31
0.421745
  0
LINE
  5
2DC
100
AcDbEntity
  8
025-DWG
100
AcDbLine
 10
1599.742922
 20
773.626348
 30
0.421745
 11
1600.735468
 21
773.626348
 31
0.421745
  0
LWPOLYLINE
  5
2DD
100
AcDbEntity
  8
025-DWG
100
AcDbPolyline
 90
        3
 70
     0
 43
0.0
 38
0.421745
 10
1599.959804
 20
773.382978
 10
1599.909227
 20
773.555067
 10
1599.742922
 20
773.626348
  0
ELLIPSE
  5
2DE
100
AcDbEntity
  8
025-DWG
100
AcDbEllipse
 10
1595.580221
 20
774.1
 30
0.421745
 11
0.0000000000002905
 21
1.0
 31
0.0
210
0.0
220
0.0
230
1.0
 40
0.654173
 41
0.0000000000004439
 42
1.544616388015124
  0
ELLIPSE
  5
2DF
100
AcDbEntity
  8
025-DWG
100
AcDbEllipse
 10
1596.392433
 20
774.1
 30
0.421745
 11
-0.0000000000001439
 21
1.0
 31
0.0
210
0.0
220
0.0
230
1.0
 40
0.121869
 41
-0.0000000000011811
 42
1.544616388014916
  0
LINE
  5
2E0
100
AcDbEntity
  8
035-DWG
100
AcDbLine
 10
1590.551452
 20
775.1
 30
0.421745
 11
1590.551452
 21
775.6
 31
0.421745
  0
LINE
  5
2E1
100
AcDbEntity
  8
035-DWG
100
AcDbLine
 10
1590.551452
 20
775.6
 30
0.421745
 11
1600.551452
 21
775.6
 31
0.421745
  0
LINE
  5
2E2
100
AcDbEntity
  8
035-DWG
100
AcDbLine
 10
1609.390986
 20
775.1
 30
0.421745
 11
1596.392433
 21
775.1
 31
0.421745
  0
LINE
  5
2E3
100
AcDbEntity
  8
025-DWG
100
AcDbLine
 10
1596.270605
 20
774.126177
 30
0.421745
 11
1609.438485
 21
774.126177
 31
0.421745
  0
LWPOLYLINE
  5
2E4
100
AcDbEntity
  8
025-DWG
100
AcDbPolyline
 90
        6
 70
     0
 43
0.0
 38
0.421745
 10
1607.4039
 20
773.382978
 10
1607.338139
 20
773.239929
 10
1607.202717
 20
773.151519
 10
1607.04936
 20
773.151519
 10
1606.936646
 20
773.239929
 10
1606.907627
 20
773.382978
  0
LINE
  5
2E5
100
AcDbEntity
  8
025-DWG
100
AcDbLine
 10
1606.690745
 20
773.626348
 30
0.421745
 11
1607.683291
 21
773.626348
 31
0.421745
  0
ENDSEC
  0
SECTION
  2
OBJECTS
  0
DICTIONARY
  5
1A
100
AcDbDictionary
  3
ACAD_GROUP
350
18
  3
ACAD_MLINESTYLE
350
19
  0
DICTIONARY
  5
18
102
{ACAD_REACTORS
330
1A
102
}
100
AcDbDictionary
  0
DICTIONARY
  5
19
102
{ACAD_REACTORS
330
1A
102
}
100
AcDbDictionary
  3
STANDARD
350
1D
  0
MLINESTYLE
  5
1D
102
{ACAD_REACTORS
330
19
102
}
100
AcDbMlineStyle
  2
STANDARD
 70
     0
  3

 62
     0
 51
90.0
 52
90.0
 71
     2
 49
0.5
 62
   256
  6
BYLAYER
 49
-0.5
 62
   256
  6
BYLAYER
  0
ENDSEC
  0
EOF
